Oops, an error
Loading. Please wait.

Slip Away Tab

version 3
version 3

Whole song

690 views 6 this week
no commentswrite comment
1 2 3 4 5
excellent!
x 3
add to favorites
launch autoscroll
font size
0
reset
how to read this tab
guitar tuner
Autoscroll
slow
fast
+/-
esc
set tempo
stop
Help us to improve Ultimate-Guitar.com Take our survey!
×
Author
Difficulty
Tuning
novice
C# G# C# F# A# D#
Dry Cell: Slip Away

Transcribed by: mysticguitar77

Date last modified: December 18, 2010

YouTube Account: MysticGuitar77

Tuning: Drop Db (Db,Ab,Db,Gb,Bb,Eb)

Notes: Haven't seen many accurate Dry Cell tabs and that's unfortunate as they write
great music and their songs are very fun to jam to. This song is pretty straight forward,
very fun to play. Don't forget to check out my YouTube channel above for my cover of 
this song as well as over 100 other guitar covers from various bands of various different
genres. May also be tabbing and covering "Under The Sun" as well as "Body Crumbles" soon.

Riff 1 - Guitar 1 (weird Buckethead-esque effect here)
Eb|-------------------------------------------------------------|
Bb|-------------------------------------------------------------|
Gb|-------------------------------------------------------------|
Db|-------------------------------------------------------------|
Ab|-5-5-55-5-5-55-5-5-5-55-5-5-55-5-5-5-55-5-5-55-5-5-5-5-5-5-5-|
Db|-------------------------------------------------------------|

Riff 1 - Guitar 2 (volume swell up)
Eb|-------------------------------------------------------------|
Bb|-------------------------------------------------------------|
Gb|-----------------------------------------------------------7-|
Db|-----------------------------------------------------------7-|
Ab|-----------------------------------------------------------5-|
Db|-------------------------------------------------------------|

Riff 2 - Guitar 1
Eb|---------------------------------------------------|
Bb|---------------------------------------------------|
Gb|-14-14-1414-14-14-1414-14-14-14-1414-14-14-1414-14-|
Db|-x--x--x-x--x--x--x-x--x--x--x--x-x--x--x--x-x--x--|
Ab|-12-12-1212-12-12-1212-12-12-12-1212-12-12-1212-12-|
Db|---------------------------------------------------|

Eb|---------------------------------------------------|
Bb|---------------------------------------------------|
Gb|-13-13-1313-13-13-1313-13-13-13-1313-13-13-1313-13-|
Db|-x--x--x-x--x--x--x-x--x--x--x--x-x--x--x--x-x--x--|
Ab|-11-11-1111-11-11-1111-11-11-11-1111-11-11-1111-11-|
Db|---------------------------------------------------|

Eb|---------------------------------------------------|
Bb|---------------------------------------------------|
Gb|-14-14-1414-14-14-1414-14-14-14-1414-14-14-1414-14-|
Db|-x--x--x-x--x--x--x-x--x--x--x--x-x--x--x--x-x--x--|
Ab|-12-12-1212-12-12-1212-12-12-12-1212-12-12-1212-12-|
Db|---------------------------------------------------|

Eb|---------------------------------------------------|
Bb|---------------------------------------------------|
Gb|-17-17-1717-17-17-1717-17-19-19-1919-19-19-1919-19-|
Db|-x--x--x-x--x--x--x-x--x--x--x--x-x--x--x--x-x--x--|
Ab|-15-15-1515-15-15-1515-15-17-17-1717-17-17-1717-17-|
Db|---------------------------------------------------|

Riff 2 - Guitar 2
Eb|------------------------------------|
Bb|------------------------------------|
Gb|------------------------------------|
Db|-0-0-00-0-0-00-1-0-0-00-0-6\5-0-0h3-|
Ab|-0-0-00-0-0-00-1-0-0-00-0-6\5-0-0h3-|
Db|-0-0-00-0-0-00-1-0-0-00-0-6\5-0-0h3-|
    * * ** * * **   * * ** *     *

Eb|------------------------------------|
Bb|------------------------------------|
Gb|------------------------------------|
Db|-0-0-00-0-0-00-1-0-0-00-0-6\5-0-0h1-|
Ab|-0-0-00-0-0-00-1-0-0-00-0-6\5-0-0h1-|
Db|-0-0-00-0-0-00-1-0-0-00-0-6\5-0-0h1-|
    * * ** * * **   * * ** *     *

Guitar 2 plays Riff 2 twice

Riff 3 - Guitar 1   "Day of reflection, a day of rejection..."
Eb|------------------------------------------------------|
Bb|------------------------------------------------------|
Gb|------------------------------------------------------|
Db|-------------------------------------------------6\\\-|
Ab|-5-5-55-5-5-55-5-5-5-55-5-5-55-5-----------------6\\\-|
Db|---------------------------------6-6-66-6-6-66-6-6\\\-|

Riff 3 - Guitar 2
Eb|------------------------------------------------------|
Bb|---------------15b-------------15b------------15b-----|
Gb|------------------------------------------------------|
Db|-------------------------------------------------6\\\-|
Ab|-------------------------------------------------6\\\-|
Db|-------------------------------------------------6\\\-|

Play Riff 3 twice
Both guitars play Guitar 2 Riff 2 riff twice   "So far gone!"

Riff 4 - Both Guitars   "Finally when I'm at my end!"
Eb|--------------------------------------------|
Bb|--------------------------------------------|
Gb|-7-7-7----7\3-3----5----7-7-7----7\3-3------|
Db|-7-7-7----7\3-3----5----7-7-7----7\3-3----3-|
Ab|-5-5-5----5\1-1----3----5-5-5----5\1-1----3-|
Db|------------------------------------------3-|

Eb|------------------------------------------------------|
Bb|------------------------------------------------------|
Gb|-7-7-7----7\3-3----5----7-7-77-7-7-7\3-3-3-3----------|
Db|-7-7-7----7\3-3----5----7-7-77-7-7-7\3-3-3-3-5-5-5-4~-|
Ab|-5-5-5----5\1-1----3----5-5-55-5-5-5\1-1-1-1-3-3-3-0~-|
Db|---------------------------------------------3-3-3-0~-|

Play Riff 2
Play Riff 3 twice   "Time, to be remembered..."
Both Guitars play Guitar 2 Riff 2 twice   "So far gone!"
Play Riff 4   "Finally when I'm at my end!"

Riff 5 - Guitar 1   "Something inside is gonna break you, stand up..."
Eb|------------------------------------------|
Bb|------------------------------------------|
Gb|-11----12--12--11----12--12--11----12--12-|
Db|-x-----x---12--x-----x---12--x-----x---12-|
Ab|-9-----10--10--9-----10--10--9-----10--10-|
Db|-0-----0---0---0-----0---0---0-----0---0--|

Eb|-------------------------------------------------------|
Bb|-------------------------------------------------------|
Gb|-11----12-12-12-12-12-12-12-12-12-12-12-12-12-12-12-12-|
Db|-x-----x--x--x--x--x--x--x--x--12-12-12-12-12-12-12-12-|
Ab|-9-----10-10-10-10-10-10-10-10-10-10-10-10-10-10-10-10-|
Db|-0-----0--0--0--0--0--0--0--0--------------------------|

Riff 5 - Guitar 2
Eb|------------------------------------------|
Bb|------------------------------------------|
Gb|------------------------------------------|
Db|-12----10--10--12----10--10--12----10--10-|
Ab|-12----8---10--12----8---10--12----8---10-|
Db|-12----8---10--12----8---10--12----8---10-|

Eb|-------------------------------------------------------|
Bb|-------------------------------------------------------|
Gb|-------------------------------------------------------|
Db|-12----10-10-10-10-10-10-10-10-10-10-10-10-10-10-10-10-|
Ab|-12----8--8--8--8--8--8--8--8--10-10-10-10-10-10-10-10-|
Db|-12----8--8--8--8--8--8--8--8--10-10-10-10-10-10-10-10-|

Riff 6 - Guitar 1   "I don't understand this world that we are living in..."
(not sure about this bit, the version I have makes it very hard to hear this)
Eb|-------------------------------------------------|
Bb|-18-------18-------18----18-------18-------18----|
Gb|----17-------17-------17----17-------17-------17-|
Db|-------15-------15-------------15-------15-------|
Ab|-------------------------------------------------|
Db|-------------------------------------------------|

Eb|-------------------------------------------------|
Bb|-16-------15-------16----16-------15-------16----|
Gb|----15-------15-------15----15-------15-------15-|
Db|-------13-------13-------------13-------13-------|
Ab|-------------------------------------------------|
Db|-------------------------------------------------|

Eb|-------------------------------------------------|
Bb|-18-------18-------18----18-------18-------18----|
Gb|----17-------17-------17----17-------17-------17-|
Db|-------15-------15-------------15-------15-------|
Ab|-------------------------------------------------|
Db|-------------------------------------------------|

Eb|-----------------------|
Bb|-16--16--16-16--16--16-|
Gb|-15--15--15-15--15--15-|
Db|-13--13--13-13--13--13-|
Ab|-----------------------|
Db|-----------------------|

Riff 6 - Guitar 2
Eb|--------------------------------------------------------|
Bb|--------------------------------------------------------|
Gb|-10--10-10-10-10--10-10-10------------------------------|
Db|-10--10-10-10-10--10-10-10-10\-3--3-3-3-3--3-3-3-3--3-3-|
Ab|-8---8--8--8--8---8--8--8--10\-3--3-3-3-3--3-3-3-3--3-3-|
Db|-8---8--8--8--8---8--8--8--10\-3--3-3-3-3--3-3-3-3--3-3-|

Eb|---------------------------------------------------|
Bb|---------------------------------------------------|
Gb|-8--8-8-8-8--8-8-8-8--8-8--------------------------|
Db|-8--8-8-8-8--8-8-8-8--8-8-1--1-1-1-1--1-1-1-1--1-1-|
Ab|-6--6-6-6-6--6-6-6-6--6-6-1--1-1-1-1--1-1-1-1--1-1-|
Db|-6--6-6-6-6--6-6-6-6--6-6-1--1-1-1-1--1-1-1-1--1-1-|

Eb|--------------------------------------------------------|
Bb|--------------------------------------------------------|
Gb|-10--10-10-10-10--10-10-10------------------------------|
Db|-10--10-10-10-10--10-10-10-10\-3--3-3-3-3--3-3-3-3--3-3-|
Ab|-8---8--8--8--8---8--8--8--10\-3--3-3-3-3--3-3-3-3--3-3-|
Db|-8---8--8--8--8---8--8--8--10\-3--3-3-3-3--3-3-3-3--3-3-|

Eb|-----------------|
Bb|-----------------|
Gb|-8--8--8-8--8--8-|
Db|-8--8--8-8--8--8-|
Ab|-6--6--6-6--6--6-|
Db|-6--6--6-6--6--6-|

Play Riff 6 twice

Riff 7 - Guitar 2 (Guitar 1 continues to play Riff 6 underneath)
"Day of reflection, life of rejection!"
Eb|--------------------------------------------------------------|
Bb|--------------------------------------------------------------|
Gb|-10--10-10-10-10--10-10-10-10--10-10--------------------------|
Db|-10--10-10-10-10--10-10-10-10--10-10-3--3-3-3-3--3-3-3-3--3-3-|
Ab|-8---8--8--8--8---8--8--8--8---8--8--3--3-3-3-3--3-3-3-3--3-3-|
Db|-8---8--8--8--8---8--8--8--8---8--8--3--3-3-3-3--3-3-3-3--3-3-|

Eb|---------------------------------------------------|
Bb|---------------------------------------------------|
Gb|-8--8-8-8-8--8-8-8-8--8-8-8--8-8-8-8--8-8-8-8--8-8-|
Db|-8--8-8-8-8--8-8-8-8--8-8-8--8-8-8-8--8-8-8-8--8-8-|
Ab|-6--6-6-6-6--6-6-6-6--6-6-6--6-6-6-6--6-6-6-6--6-6-|
Db|-6--6-6-6-6--6-6-6-6--6-6--------------------------|

Eb|--------------------------------------------------------------|
Bb|--------------------------------------------------------------|
Gb|-10--10-10-10-10--10-10-10-10--10-10--------------------------|
Db|-10--10-10-10-10--10-10-10-10--10-10-3--3-3-3-3--3-3-3-3--3-3-|
Ab|-8---8--8--8--8---8--8--8--8---8--8--3--3-3-3-3--3-3-3-3--3-3-|
Db|-8---8--8--8--8---8--8--8--8---8--8--3--3-3-3-3--3-3-3-3--3-3-|

Eb|-----------------|
Bb|-----------------|
Gb|-8--8--8-8--8--8-|
Db|-8--8--8-8--8--8-|
Ab|-6--6--6-6--6--6-|
Db|-6--6--6-6--6--6-|

Repeat first two measures, end with:
"Waaaaaaaaaaaaaaayyyyyyyyyyyyyyyyy..."
Eb|-----|
Bb|-----|
Gb|-10~-|
Db|-10~-|
Ab|-8~--|
Db|-8~--|

End with both guitars playing Guitar 2 Riff 2 twice

Finishing Notes: Since Dry Cell has a few different versions of every one of their
songs, it's worth noting that this tab along with my cover on YouTube I am using the
Amazon.com Advanced version. So that's it, good luck and have fun!
Suggest correction
What's this?
You can suggest a correction to this tab. Community and Mods will review your correction and vote to approve or reject it.
comments
We did not receive enough feedback on this tab! Please rate:
print report bad tab
1 2 3 4 5
guest
You may want to rate the tab now too:
select rating
Please do not post tabs as comments. Select "correction" instead!