Oops, an error
Loading. Please wait.

So Long Ago Tab

version 2
version 2

Whole song

Interactive

585 views 1 this week
no commentswrite comment
1 2 3 4 5
x 6
add to favorites
launch autoscroll
font size
0
reset
how to read this tab
guitar tuner
Autoscroll
slow
fast
+/-
esc
set tempo
stop
Help us to improve Ultimate-Guitar.com Take our survey!
×
Author
So Long Ago tab, tabbed by Rob Routon  (poolshark880@hotmail.com)

Tuning: Drop Db  (with a tuner, press b (flat) button one time for 5 highest strings and 
times for the low one.
Eb
Bb
Gb
Db
Ab
Db

Intro:

Eb|-----------------------------------------------------------------------||
Bb|-----------------------------------------------------------------------||
Gb|---------10--------5------7-------7------------------------------------||
Db|----7/8--10---2/3--5------7-------7------------------------------------||
Ab|----------8--------3---0--5--6/7--5------------------------------------||
Db|-----------------------------------------------------------------------||

Eb|-----------------------------------------------------------------------||
Bb|--------------------------------5--55--55---5--55--55------------------||
Gb|---10--1010--1010---5--55--55---7--77--77---7--77--77------------------||
Db|---10--1010--1010---5--55--55---7--77--77---7--77--77------------------||
Ab|----8---8-8---8-8---3--33--33---5--55--55---5--55--55------------------||
Db|-----------------------------------------------------------------------||

Eb|-----------------------------------------------------------------------||
Bb|-----------------------------------------------------------------------||
Gb|---10--1010--1010---5--55--55------------------------------------------||
Db|---10--1010--1010---5--55--55----00--010--------0----------------------||
Ab|----8---8-8---8-8---3--33--33----00--010--(x3)--0----------------------||
Db|---------------------------------00--010--------0----------------------||
                                    ..

Verse:

Eb|-------------8~~-------------------------------------------------------||
Bb|-----6--6/8------------------------------------------------------------||
Gb|-----------------------------------------------------------------------||
Db|-----------------------------------------------------------------------||
Ab|-----------------------------------------------------------------------||
Db|-----------------------------------------------------------------------||
        .  ...  .
I mildly palm mute these verse notes, it sounds more like the song and i suggest doing 
but not palm muting them sounds fine as well, after all they would be the corect notes.

Pre-Chorus:

Eb|-----------------------------------------------------------------------||
Bb|--------------------------------5--55--55---5--55--55--------5---------||
Gb|---10--1010--1010---5--55--55---7--77--77---7--77--77--------7---------||
Db|---10--1010--1010---5--55--55---7--77--77---7--77--77--------7---------||
Ab|----8---8-8---8-8---3--33--33---5--55--55---5--55--55--------5---------||
Db|-----------------------------------------------------------------------||
                              4th measure for 2nd time through  ^
Chorus:
 Same strumming pattern as pre-chorus!!!  5 strums for chords except for the four palm 
ones and of course the open chords at the end.
Eb|-----------------------------------------------------------------------||
Bb|-----------------------------------------------------------------------||
Gb|---10---5---7---7----5---7---9---10---------------10---5---------------||
Db|---10---5---7---7----5---7---9---10---(x2)-Then---10---5---00--010----0||
Ab|----8---3---5---5----3---5---7----8----------------8---3---00--010(x3)0||
Db|-----------------------------------------------------------00--010----0||
                        .   .   .    .                        ..

Verse 2: Same as Verse 1

Pre-Chorus 2: Same as Pre-Chorus 1

Chorus 2: Same as Chorus 1

Bridge:

Eb|-----------------------------------------------------------------------||
Bb|-----------------------------------------------------------------------||
Gb|----10--1010--1010---5--55--55---7--77--77---7--77--77-----------------||
Db|----10--1010--1010---5--55--55---7--77--77---7--77--77---(x4)----------||
Ab|-----8---8-8---8-8---3--33--33---5--55--55---5--55--55-----------------||
Db|-----------------------------------------------------------------------||

Chorus 3/Outro:

Same as first 2 choruses, after playing the chorus twice you play:
Eb|-----------------------------------------------------------------------||
Bb|-----------------------------------------------------------------------||
Gb|----10----5----7-------------------------------------------------------||
Db|----10----5----7-------------------------------------------------------||
Ab|-----8----3----5-------------------------------------------------------||
Db|-----------------------------------------------------------------------||
     Let these chords ring through, and then ur done!

Tablature Key:
. = palm mute the note/chord above it
/ = slide up

Thnx! be sure to rate! By the way this is my first tab.
Questions/comments  send msg to poolshark880@hotmail.com
Suggest correction
comments
print report bad tab
guest
You may want to rate the tab now too:
select rating
Wanna post a correction for this tab? Suggest correction