Oops, an error
Loading. Please wait.

Velvet Elvis Tab

359 views 1 this week
no commentswrite comment
1 2 3 4 5
3 more votes to show rating
add to favorites
launch autoscroll
font size
0
reset
how to read this tab
guitar tuner
Autoscroll
slow
fast
+/-
esc
set tempo
stop
Help us to improve Ultimate-Guitar.com Take our survey!
×
This song was never released on an album but it is still awesome and the tabs are 100% correct

Velvet Elvis


Played low to high in drop b flat

Tuning-A#,F,A#,D#,G#,C

Order of song goes part 1,2,3,4,2,3,4,5,6,7,8,4,5,6,9,10

(3)=harmonic h=hameron

part 1
C |--------------------------------------------------------||
G#|-------------------------------2times-------------------||
D#|--16-----16----14-14-14---------------------------------||
A#|14--14---------14-14-14----16---------------------------||
F |-------15--15--12-12-12--14--14-------------------------||
A#|--------------------------------------------------------||

part 2
C |--------------------------------------------------------||
G#|-------------------------------------2times(both)-------||
D#|-----------4times--------------4times-------------------||
A#|3-2-2-2-2-2-------3-2-2-2-2-----------------------------||
F |3-2-2-2-2-2-------3-2-2-2-2-(3)-------------------------||
A#|3-2-2-2-2-2-------3-2-2-2-2-----------------------------||

part 3
C |------------------||
G#|------------------||
D#|------------------||
A#|0-----------------||
F |0-----------------||
A#|0-----------------||

part 4 for guitar 2
C |--------------------------------------------------------||
G#|--------------------------------------------------------||
D#|----------------------------------------------2times----||
A#|2-2-2-2------5-5-5-5------0-0-0-0------4-4-4-4----------||
F |2-2-2-2------5-5-5-5------0-0-0-0------4-4-4-4----------||
A#|2-2-2-2------5-5-5-5------0-0-0-0------4-4-4-4----------||

part 4 for guitar 1
C |----------------------------------------------------------||
G#|--------------------------------------------------2times--||
D#|16-16-16-16--16-16-16-16----------------------------------||
A#|14-14-14-14--14-14-14-14--14-14-14-14--16-16-16-16--------||
F |-------------15-15-15-15--12-12-12-12--14-14-14-14--------||
A#|----------------------------------------------------------||

part 5
C |--------------------------------------------------------||
G#|--------------------------------------------------1time-|
D#|16-16-16-16--16-16-16-16--14-14-14-14--14-14-14-14------||
A#|14-14-14-14--14-14-14-14--14-14-14-14--16-16-16-16------||
F |-------------15-15-15-15--12-12-12-12--14-14-14-14------||
A#|--------------------------------------------------------||

part 6
C |--------------------------------------------------------||
G#|--------------------------------------------------1time-||
D#|16-16-16-16--16-16-16-16--14-14-14-14--11-11-11-11------||
A#|14-14-14-14--14-14-14-14--12-12-12-12---9--9--9--9------||
F |-------------15-15-15-15--------------------------------||
A#|--------------------------------------------------------||

part 7
C |--------------------------------------------------------||
G#|--------------------------------------------------------||
D#|-----------------------2times---------------------------||
A#|--7h9----7h9-5h7-12-7-7---------------------------------||
F |--7------7---5---10-5-5---------------------------------||
A#|2------2------------------------------------------------||

part 8
C |--------------------------------------------------------||
G#|-------------------------2times-------------------------||
D#|-------------5h7-12-7-9-7-------------------------------||
A#|--7h9----7h9-5---10-5-7-5-------------------------------||
F |--7------7----------------------------------------------||
A#|2------2------------------------------------------------||

part 9
C |-------------------------------------||
G#|-------------------------------------||
D#|-----------3times--------------------||
A#|3-2-2-2------------------------------||
F |3-2-2-2-(3)--------------------------||
A#|3-2-2-2------------------------------||

part 10
C |-------------------------------------||
G#|-------------------------------------||
D#|--------------1time------------------||
A#|3-2-2-2------------------------------||
F |3-2-2-2-(3)(3)-----------------------||
A#|3-2-2-2------------------------------||


Tabbed by John Bowdish of ImpurVisionsDotCom
Suggest correction
Give kudos to tab author, rate the tab!
1 2 3 4 5
comments
print report bad tab
guest
You may want to rate the tab now too:
select rating
Wanna post a correction for this tab? Suggest correction