Oops, an error
Loading. Please wait.

Boneyard bass

version 1
version 1

Whole song

Interactive

333 views 1 this week
2 commentsread comments
1 2 3 4 5
1 last vote to show rating
add to favorites
×
Save as Personal and add changes to this tab that will be seen only by you. Learn more ›
×
You can save this tab as Personal to edit and correct it or add notes. All changes will be seen only by you. Learn more »
launch autoscroll
font size
0
reset
guitar tuner
edit
Autoscroll
slow
fast
+/-
esc
set tempo
stop
Tuning: Drop C
high to low (F, C, G, C)


*I don't know exactly how many times this is played, but this is the intro.
|---------|
|---------|
|---------|
|-2-1-0-1-|


|------------------------------------------------------|
|------------------------------------------------------|
|------------(FAST!)---------------5--5-----------1--1-|
|-00000000000000000000000000000000------6--6-3--3------|
                                                           x2
|---------------------------------------------|
|---------------------------------------------|
|-------------------------5--5-----------1--1-|
|-0-00000-00000-000000000------6--6-3--3------|


|-------------------------|
|-------------------------|
|-------------------------|
|-6p5-5p3-3h5-6p5-3~--5~--|x4


|--------------------------------|
|--------------------------------|
|--------------------------------|
|-0-0h1-1h4-4-3-3-6-6-5-5\4-4-\1-|x4


|------------------------------------------------------|
|------------------------------------------------------|
|------------(FAST!)---------------5--5-----------1--1-|
|-00000000000000000000000000000000------6--6-3--3------|
                                                           x2
|---------------------------------------------|
|---------------------------------------------|
|-------------------------5--5-----------1--1-|
|-0-00000-00000-000000000------6--6-3--3------|


|-------------------------|
|-------------------------|
|-------------------------|
|-6p5-5p3-3h5-6p5-3~--5~--|x4


|--------------------------------|
|--------------------------------|
|--------------------------------|
|-0-0h1-1h4-4-3-3-6-6-5-5\4-4-\1-|x8


|-------------------------------------------------------------|
|-------------------------------------------------------------|
|-------------------------------------------------------------|
|-0-1p0-0-1p0-1p0-0-1-3-4-3-1-0-1p0-1p0-0-1p0-1p0-0-1-3-1-0-0-|x4


|-------------------------|
|-------------------------|
|-------------------------|
|-6p5-5p3-3h5-6p5-3~--5~--|


|--------------------------------|
|--------------------------------|
|--------------------------------|
|-0-0h1-1h4-4-3-3-6-6-5-5\4-4-\1-|x8


*Play this till the end of the song.
|---------|
|---------|
|---------|
|-2-1-0-1-|

            
            
Suggest correction
Creating personal tab
Creating personal tab
You can edit any tab online and save it as your Personal.

You can edit, replace or remove any tab part or add personal notes – all changes will be seen only by you.

Personal tabs can be accessed anytime from any device, even offline.
Learn more »
Give kudos to tab author, rate the tab!
1 2 3 4 5
comments
print report bad tab
2 comments total.
0 reply
S.D.M.F. 52 Jan 18, 2008 05:34 PM

Good job dude, i couldnt really make out the notes myself so i thought id check my bible. UG.com.

thanks again dude
for an awesome tab. 5 star

0 reply
carrotcake 2,007 Jan 18, 2008 05:36 PM

Thanks dude, I really appreciate it!

Hope you like this tab. :D

guest
You may want to rate the tab now too:
select rating
Wanna post a correction for this tab? Suggest correction