Oops, an error
Loading. Please wait.

Bible Belt Tab

version 1
version 1

Whole song

16,032 views 6 this week
2 commentsread comments
1 2 3 4 5
accurate
x 4
add to favorites
launch autoscroll
font size
0
reset
how to read this tab
guitar tuner
Autoscroll
slow
fast
+/-
esc
set tempo
stop
Help us to improve Ultimate-Guitar.com Take our survey!
×
Author
This is my first tab. Let me know if theres any mistakes

Dry The River-Bible Belt

Intro
E-----------------|-----------------|-----------------|
B---9---9---9-11p9|-----------------|-----------------|
G-10--10--10-10---|-10-10-10h11p10-8|6h8p6------------|
D-----------------|-----------------|-----------------|
A-----------------|9--9--9----------|-----------------|
E-----------------|-----------------|-----------------| X2

If you listen to the song you'll kow when to leave out the hammer on/pull offs

Verse 
Intro riff
'Lo and behold your mother is drinking again
This might be the coldest winter since records began
You were alone and steady with wintry calm
Leading the children softly across the fold

E-----------------|-----------------|-----------------|
B---9---11-13-9---|13--11-----------|-----------------|
G-10--10--10-10-10|--10---10--10-10h|11p10-8-6h8p6----|
D-----------------|-----------------|-----------------|
A-----------------|------9---9--9---|-----------------|
E-----------------|-----------------|-----------------| 

Intro riff
Each morning you march your sisters like soldiers to school
'Cause lo and behold your father has drunk quite a few
You were alone and steady with wintry calm
Somewhere inside the fire of your youth went dark

Em                                            D
But you swear blind there is no weight in the water pail
Em                                                    D
You say 'my love, you take the cards that you're dealt'
Em                                                D
Cause there's no guiding light arcing a line to Bethlehem
Em                                          D  
If it's dark outside, you light the fire yourself

G               
Darling when the ice caps melt
G
When the devils in the bible belt
G                       D
Don't you cower in your bed
G
I'll be at the five-four-five
G
You can meet me at the railway line
G               D
Don't look so scared

Em                                                        D
'Cause we've been through worse than this before we could talk

G                                        D
And the trick of it is, don't be afraid anymore
Em                                         D
Oh, the trick of it is, don't be afraid anymore

E----------------9|
B---9---9---9---9-|
G-10--10--10-10---|
D-----------------|
A-----------------|
E-----------------| 

Enjoy!
http://www.drytheriver.com/
Suggest correction
comments
print report bad tab
2 comments total.
0 reply
alpaca 30 wrote on March 24 2011, 11:04 am

the middle riff is more like this


E-----------------|-----------------|-----------------|
B---9---11-13-9---|14--13---9--11-9-|-----------------|
G-10--10--10-10-10|--10-------------|-----------------|
D-----------------|------10--10-----|-----------------|
A-----------------|-----------------|-----------------|
E-----------------|-----------------|-----------------|

it's not right but you get the idea

-1 reply
alpaca 30 wrote on June 29 2011, 05:12 am

also move all the picking up one fret so like 10 9 becomes 11 10!

guest
You may want to rate the tab now too:
select rating
Please do not post tabs as comments. Select "correction" instead!