Oops, an error
Loading. Please wait.

Burn In Hell Tab

by Dsis
943 views 480 this week
no commentswrite comment
1 2 3 4 5
3 more votes to show rating
add to favorites
launch autoscroll
font size
0
reset
how to read this tab
guitar tuner
Autoscroll
slow
fast
+/-
esc
set tempo
stop
Help us to improve Ultimate-Guitar.com Take our survey!
×
Author
Difficulty
Tuning
novice
C G C F A D
OPENING
D| --------------------------------|
A| --------------------------------|
F| --------------------------------|
C| --------------------------------|
G| --------------------------------|
C| 5-0-0-0-3-0-0-0-5-0-0-6~~~6-3~~~|

D| --------------------------------|
A| --------------------------------|
F| --------------------------------|
C| --------------------------------|
G| --------------------------------|
C| 5-0-0-0-3-0-0-0-5-0-0-5/6\5-3~~~| x2

BIG INTRO
D| --------------------------------|
A| --------------------------------|
F| --------------------------------|
C| 5-0-0-0-3-0-0-0-5-0-0-6~~~6-3~~~|
G| 5-0-0-0-3-0-0-0-5-0-0-6~~~6-3~~~|
C| 5-0-0-0-3-0-0-0-5-0-0-6~~~6-3~~~|

D| --------------------------------|
A| --------------------------------|
F| --------------------------------|
C| 5-0-0-0-3-0-0-0-5-0-0-5/6\5-3~~~|
G| 5-0-0-0-3-0-0-0-5-0-0-5/6\5-3~~~|
C| 5-0-0-0-3-0-0-0-5-0-0-5/6\5-3~~~| x3

D| --------------------------------|
A| --------------------------------|
F| --------------------------------|
C| 5-0-0-0-3-0-0-0-5-0-0-6~~~6-3~~~|
G| 5-0-0-0-3-0-0-0-5-0-0-6~~~6-3~~~|
C| 5-0-0-0-3-0-0-0-5-0-0-6~~~6-3~~~|

D| ----------------------------------------------------------------|
A| ----------------------------------------------------------------|
F| ----------------------------------------------------------------|
C| 5-0-0-0-3-0-0-0-5-0-0-5/6\5-3~~~~~~~~~~~~~~~~~~~~~~~~~~~~~~~~~~~|
G| 5-0-0-0-3-0-0-0-5-0-0-5/6\5-3~~~~~~~~~~~~~~~~~~~~~~~~~~~~~~~~~~~|
C| 5-0-0-0-3-0-0-0-5-0-0-5/6\5-3~~~~~~~~~~~~~~~~~~~~~~~~~~~~~~~~~~~|

VERSE 1

D| --------------------------------|
A| --------------------------------|
F| --------------------------------|
C| 5-------3-------5-----6~~~6-3~~~|
G| 5-0-0-0-3-0-0-0-5-0-0-6~~~6-3~~~|
C| 5-0-0-0-3-0-0-0-5-0-0-6~~~6-3~~~| x4
PM   . . .   . . .   . .

CHORUS 1
D| -----------------------------------------------|
A| -----------------------------------------------|
F| -----------------------------------------------|
C| 12-12-12-12-12-12-12-12-13-13-13-10-10-10-10-10|
G| 12-12-12-12-12-12-12-12-13-13-13-10-10-10-10-10|
C| 12-12-12-12-12-12-12-12-13-13-13-10-10-10-10-10|

D| -----------------------------------------------|
A| -----------------------------------------------|
F| -----------------------------------------------|
C| 12-12-12-12-12-12-12-12-13-13-13-15-15-15-15-15|
G| 12-12-12-12-12-12-12-12-13-13-13-15-15-15-15-15|
C| 12-12-12-12-12-12-12-12-13-13-13-15-15-15-15-15|

D| -----------------------------------------------|
A| -----------------------------------------------|
F| -----------------------------------------------|
C| 12-12-12-12-12-12-12-12-13-13-13-10-10-10-10-10|
G| 12-12-12-12-12-12-12-12-13-13-13-10-10-10-10-10|
C| 12-12-12-12-12-12-12-12-13-13-13-10-10-10-10-10|

D| -------------------------------|
A| -------------------------------|
F| -------------------------------|
C| 8-8-8-8-8-8-8-8-5-5-5-7-7-7-7-7|
G| 8-8-8-8-8-8-8-8-5-5-5-7-7-7-7-7|
C| 8-8-8-8-8-8-8-8-5-5-5-7-7-7-7-7| x2

D| --------------------------------------------------------------|
A| --------------------------------------------------------------|
F| --------------------------------------------------------------|
C| 8-8-8-8-8-8-8-8-3-3-3-x-1-1---0~~~~~~~~~~~~~~~~~~~~~~~~~~~~~~~|
G| 8-8-8-8-8-8-8-8-3-3-3-x-1-1---0~~~~~~~~~~~~~~~~~~~~~~~~~~~~~~~|
C| 8-8-8-8-8-8-8-8-3-3-3-x-1-1---0~~~~~~~~~~~~~~~~~~~~~~~~~~~~~~~|

INTERLUDE

D| ----------------------------------|
A| ----------------------------------|
F| ----------------------------------|
C| ----------------------------------|
G| ---------------------------ph3v~~~|
C| 3p0-3p0-3p5h-3p0-3p0-3h5-x--------|

D| --------------------------------|
A| --------------------------------|
F| --------------------------------|
C| 5-0-0-0-3-0-0-0-5-0-0-6~~~6-3~~~|
G| 5-0-0-0-3-0-0-0-5-0-0-6~~~6-3~~~|
C| 5-0-0-0-3-0-0-0-5-0-0-6~~~6-3~~~|

D| --------------------------------|
A| --------------------------------|
F| --------------------------------|
C| 5-0-0-0-3-0-0-0-5-0-0-5/6\5-3~~~|
G| 5-0-0-0-3-0-0-0-5-0-0-5/6\5-3~~~|
C| 5-0-0-0-3-0-0-0-5-0-0-5/6\5-3~~~| x2

VERSE 2

D| --------------------------------|
A| --------------------------------|
F| --------------------------------|
C| 5-------3-------5-----6~~~6-3~~~|
G| 5-0-0-0-3-0-0-0-5-0-0-6~~~6-3~~~|
C| 5-0-0-0-3-0-0-0-5-0-0-6~~~6-3~~~| x4
PM   . . .   . . .   . .

PRE-CHORUS
D| --------------------------------|
A| --------------------------------|
F| --------------------------------|
C| 10~~~~~ 12~~~~~~~~~~~~~~~~~~~~~~|
G| 10~~~~~ 12~~~~~~~~~~~~~~~~~~~~~~|
C| 10~~~~~ 12~~~~~~~~~~~~~~~~~~~~~~|

D| --------------------------------|
A| --------------------------------|
F| --------------------------------|
C| 10~~~~~ 13~~~~~~~~~~~~~~~~~~~~~~|
G| 10~~~~~ 13~~~~~~~~~~~~~~~~~~~~~~|
C| 10~~~~~ 13~~~~~~~~~~~~~~~~~~~~~~|

D| --------------------------------|
A| --------------------------------|
F| --------------------------------|
C| 10~~~~~ 12~~~~~~~~~~~~~~~~~~~~~~|
G| 10~~~~~ 12~~~~~~~~~~~~~~~~~~~~~~|
C| 10~~~~~ 12~~~~~~~~~~~~~~~~~~~~~~|

D| ----------------------------------------------------------------|
A| ----------------------------------------------------------------|
F| ----------------------------------------------------------------|
C| 10~~~~~ 13~~~~~~~~~~~~~~~~~~~~~~~~~~~~~~~~~~~~~~~~~~~~~~~~~~13/0|
G| 10~~~~~ 13~~~~~~~~~~~~~~~~~~~~~~~~~~~~~~~~~~~~~~~~~~~~~~~~~~13/0|
C| 10~~~~~ 13~~~~~~~~~~~~~~~~~~~~~~~~~~~~~~~~~~~~~~~~~~~~~~~~~~13/0|

CHORUS 2

D| -----------------------------------------------|
A| -----------------------------------------------|
F| -----------------------------------------------|
C| 12-12-12-12-12-12-12-12-13-13-13-10-10-10-10-10|
G| 12-12-12-12-12-12-12-12-13-13-13-10-10-10-10-10|
C| 12-12-12-12-12-12-12-12-13-13-13-10-10-10-10-10|

D| -----------------------------------------------|
A| -----------------------------------------------|
F| -----------------------------------------------|
C| 12-12-12-12-12-12-12-12-13-13-13-15-15-15-15-15|
G| 12-12-12-12-12-12-12-12-13-13-13-15-15-15-15-15|
C| 12-12-12-12-12-12-12-12-13-13-13-15-15-15-15-15|

D| -----------------------------------------------|
A| -----------------------------------------------|
F| -----------------------------------------------|
C| 12-12-12-12-12-12-12-12-13-13-13-10-10-10-10-10|
G| 12-12-12-12-12-12-12-12-13-13-13-10-10-10-10-10|
C| 12-12-12-12-12-12-12-12-13-13-13-10-10-10-10-10|

D| -------------------------------|
A| -------------------------------|
F| -------------------------------|
C| 8-8-8-8-8-8-8-8-5-5-5-7-7-7-7-7|
G| 8-8-8-8-8-8-8-8-5-5-5-7-7-7-7-7|
C| 8-8-8-8-8-8-8-8-5-5-5-7-7-7-7-7| x2

D| --------------------------------------------------------------|
A| --------------------------------------------------------------|
F| --------------------------------------------------------------|
C| 8-8-8-8-8-8-8-8-3-3-3-x-1-1---0~~~~~~~~~~~~~~~~~~~~~~~~~~~~~~~|
G| 8-8-8-8-8-8-8-8-3-3-3-x-1-1---0~~~~~~~~~~~~~~~~~~~~~~~~~~~~~~~|
C| 8-8-8-8-8-8-8-8-3-3-3-x-1-1---0~~~~~~~~~~~~~~~~~~~~~~~~~~~~~~~|

INTERLUDE

D| ----------------------------------|
A| ----------------------------------|
F| ----------------------------------|
C| ----------------------------------|
G| ---------------------------ph3v~~~|
C| 3p0-3p0-3p5h-3p0-3p0-3h5-x--------|

BRIDGE

D| ---------------------------|
A| ---------------------------|
F| ---------------------------|
C| 0-0-0--0-0-0--0-0-0--3-2-1-| (LEAD GUITAR PLAYS THIS AGAIN SECOND TIME)
G| 0-0-0--0-0-0--0-0-0--------|
C| 0-0-0--0-0-0--0-0-0--------|

D| ---------------------------|
A| ---------------------------|
F| ---------------------------|
C| ---------------------7-6-5-|
G| 0-0-0--0-0-0--0-0-0--------|
C| 0-0-0--0-0-0--0-0-0--------|x2
PM . . .  . . .  . . .

D| --------------------------------|
A| --------------------------------|
F| --------------------------------|
C| 5-0-0-0-3-0-0-0-5-0-0-6~~~6-3~~~|
G| 5-0-0-0-3-0-0-0-5-0-0-6~~~6-3~~~|
C| 5-0-0-0-3-0-0-0-5-0-0-6~~~6-3~~~|

D| --------------------------------|
A| --------------------------------|
F| --------------------------------|
C| 5-0-0-0-3-0-0-0-5-0-0-5/6\5-3~~~|
G| 5-0-0-0-3-0-0-0-5-0-0-5/6\5-3~~~|
C| 5-0-0-0-3-0-0-0-5-0-0-5/6\5-3~~~| x2

INTERLUDE

D| ----------------------------------|
A| ----------------------------------|
F| ----------------------------------|
C| ----------------------------------|
G| ---------------------------ph3v~~~|
C| 3p0-3p0-3p5h-3p0-3p0-3h5-x--------|

FINAL CHORUS

D| -----------------------------------------------|
A| -----------------------------------------------|
F| -----------------------------------------------|
C| 12-12-12-12-12-12-12-12-13-13-13-10-10-10-10-10|
G| 12-12-12-12-12-12-12-12-13-13-13-10-10-10-10-10|
C| 12-12-12-12-12-12-12-12-13-13-13-10-10-10-10-10|

D| -----------------------------------------------|
A| -----------------------------------------------|
F| -----------------------------------------------|
C| 12-12-12-12-12-12-12-12-13-13-13-15-15-15-15-15|
G| 12-12-12-12-12-12-12-12-13-13-13-15-15-15-15-15|
C| 12-12-12-12-12-12-12-12-13-13-13-15-15-15-15-15|

D| -----------------------------------------------|
A| -----------------------------------------------|
F| -----------------------------------------------|
C| 12-12-12-12-12-12-12-12-13-13-13-10-10-10-10-10|
G| 12-12-12-12-12-12-12-12-13-13-13-10-10-10-10-10|
C| 12-12-12-12-12-12-12-12-13-13-13-10-10-10-10-10|

D| -------------------------------|
A| -------------------------------|
F| -------------------------------|
C| 8-8-8-8-8-8-8-8-5-5-5-7-7-7-7-7|
G| 8-8-8-8-8-8-8-8-5-5-5-7-7-7-7-7|
C| 8-8-8-8-8-8-8-8-5-5-5-7-7-7-7-7| x2

D| --------------------------------------------------------------|
A| --------------------------------------------------------------|
F| --------------------------------------------------------------|
C| 8-8-8-8-8-8-8-8-3-3-3-x-1-1---0~~~~~~~~~~~~~~~~~~~~~~~~~~~~~~~|
G| 8-8-8-8-8-8-8-8-3-3-3-x-1-1---0~~~~~~~~~~~~~~~~~~~~~~~~~~~~~~~|
C| 8-8-8-8-8-8-8-8-3-3-3-x-1-1---0~~~~~~~~~~~~~~~~~~~~~~~~~~~~~~~|
Suggest correction
Give kudos to tab author, rate the tab!
1 2 3 4 5
comments
print report bad tab
guest
You may want to rate the tab now too:
select rating
Wanna post a correction for this tab? Suggest correction