Oops, an error
Loading. Please wait.

Tattooed On My Mind tab

version 3
version 3

Whole song

by D'Sound
1,880 views 3 this week
no commentswrite comment
1 2 3 4 5
3 more votes to show rating
add to favorites
×
Save as Personal and add changes to this tab that will be seen only by you. Learn more ›
×
You can save this tab as Personal to edit and correct it or add notes. All changes will be seen only by you. Learn more »
launch autoscroll
font size
0
reset
how to read this tab
guitar tuner
edit
Autoscroll
slow
fast
+/-
esc
set tempo
stop
Author
Difficulty
-----------------------------------------------------------------
TATTOOED ON MY MIND - D'SOUND
-----------------------------------------------------------------
Tabbed by:  Ahren R Abrera      
Email:      ahrenkielabrera@yahoo.com
Friendster: kenjiskee@lycos.com

Hi..Please rate because this is my first time to tab a song.I do not have
the plucking of the Intro part because I cannot get 100% exact match of the 
notes but i included the chords.This is a very nice song to play for your sweethearts. 


Tuning: Standard Tuning (EADGBe)

INTRO CHORDS: B-C#m-B-A
              B-C#m-A

VERSE:
e|---------------------------------------------------------------|
B|--4---4---------5---5-----4------4------2---2------------------|
G|--4-------4-----4------4--4---------4---2-----2----------------|
D|---------------------------------------------------------------|
A|----------------4----------------------------------------------|
E|--4-----------------------4-------------2----------------------|
I.  Maybe  you'll soon      Forget about all
II. I don't wanna write     I don't wanna call

e|---------------------------------------------------------------|
B|--4---4----------5------5-------2--2x--2-----------------------|
G|--4-------4------4----------4---2--2x--2-----------------------|
D|---------------------------------------------------------------|
A|-----------------4---4-----------------------------------------|
E|--4-----------------------------2--2x--2-----------------------|
 Or maybe you'll miss it like I  do
    I would not  know what  to    say

e|------------------------------------------------------2---2-----|
B|--4------4-----------5---5------4------4--------------2---------|
G|--4-----------4------4-----4----4----------4----------2---------|
D|----------------------------------------------------------------|
A|---------------------4------------------------------------------|
E|--4-----------------------------4---------------------2---------|
    One thing's for   sure        I'm  all knocked      out
    It   should be    you       That's how I want it to be

e|---------------------------------------------------------------|
B|---4------4----------5--------5------2--2--------2-------------|
G|---4-----------4-----4----4------4---2----2----2---2-----------|
D|---------------------------------------------------------------|
A|---------------------4-----------------------------------------|
E|---4---------------------------------2-------------------------|
    I spend too much time thinking of you 
     Tell  me    you  feel  the same   way

CHORUS:
e|---------------------------------------------------------------|
B|-x-----5-----5-------4---4--------2---2--------2---------------|
G|-x-----4-------4-----4------4-----2-----2----2-----------------|
D|---------------------------------------------------------------|
A|-x-----4-------------------------------------------------------|
E|---------------------4------------2----------------------------|
  And I can't get you out  of my  dreams

e|---------------------------------------------------------------|
B|-------4-----4---------5---5---------2---2-------2-------------|
G|-------4----------4----4------4------2-----2---2---------------|
D|---------------------------------------------------------------|
A|-----------------------4---------------------------------------|
E|-------4-----------------------------2-------------------------|
  Now I know you're the  dangerous    kind

e|--------------------------------------2------------------------|
B|--------4-----4---------5---5---------2------------------------|
G|--------4----------4----4------4------2------------------------|
D|---------------------------------------------------------------|
A|------------------------4--------------------------------------|
E|--------4-----------------------------2------------------------|
 And your smile is   tattooed on my     mind

e|------------------------------------2--------------------------|
B|----x-----5----5--------4---4-------2---2--------2-------------|
G|----x-----4--------4----4------4----2-----2----2---2-----------|
D|---------------------------------------------------------------|
A|----x-----4----------------------------------------------------|
E|------------------------4-----------2--------------------------|
  'Cause I can't get you out  of my  dreams

BRIDGE:
e|---------------------------------------------------------------|
B|-2-------5--5x-5-----5--------2--2-2---------------------------|
G|-2-------4--4x-4---------4----2--2-2---------------------------|
D|---------------------------------------------------------------|
A|---------4--4x-4--4--------------------------------------------|
E|-2----------------------------2----2---------------------------|
  Oh yesterday I  was feeling safe

e|---------------------------------------------------------------|
B|-----2--5--5x-5---------5---------2--2-2-----------------------|
G|--------4--4x-4-------------4-----2--2-2-----------------------|
D|---------------------------------------------------------------|
A|--------4--4x-4------4-----------------------------------------|
E|--2-------------------------------2----2-----------------------|
   All I do today is  trying to be brave


e|---------------------------------------------------------------|
B|-----2--5--5x-5---------5---------2--2-2-----------------------|
G|--------4--4x-4-------------4-----2--2-2-----------------------|
D|---------------------------------------------------------------|
A|--------4--4x-4------4-----------------------------------------|
E|--2-------------------------------2----2-----------------------|
  And no  melody    can seem to soothe my mind

e|---------------------------------------------------------------|
B|-----2-----2-----2------4--4--------5----5---x--7--------------|
G|-------2---2---------2--4------4----4-----------6--------------|
D|---------------------------------------------------------------|
A|-----------2------------------------4-----------5--------------|
E|-2----------------------4--------------------------------------|
  And now I curse you for being  so sweet and so kind

OUTRO:
e|---------------------------------------------------------------|
B|-2--2---5---5-----------2-----2------5-----5-----------2-------|  Repeat until fade
G|-2------4---------4-----2--------2---4-----------4-----2-------|
D|---------------------------------------------------------------|
A|--------4----------------------------4-------------------------|
E|-2----------------------2------------------------------2-------|
  Yes I know you're tattooed    on my mind you're tattooed

Comments or suggestions? Feel free to send me a message at my email or friendster. I hope this helps you.

            
            
Suggest correction
Creating personal tab
Creating personal tab
You can edit any tab online and save it as your Personal.

You can edit, replace or remove any tab part or add personal notes – all changes will be seen only by you.

Personal tabs can be accessed anytime from any device, even offline.
Learn more »
Give kudos to tab author, rate the tab!
1 2 3 4 5
comments
print report bad tab
guest
You may want to rate the tab now too:
select rating
Wanna post a correction for this tab? Suggest correction