Oops, an error
Loading. Please wait.

New Rules chords

version 2
version 2

Whole song

2,980 views 933 this week
no commentswrite comment
1 2 3 4 5
x 4
add to favorites
×
Save as Personal and add changes to this tab that will be seen only by you. Learn more ›
×
You can save this tab as Personal to edit and correct it or add notes. All changes will be seen only by you. Learn more »
launch autoscroll
font size
0
reset
transpose
0
reset
simplify chords
display chords
guitar tuner
edit
Autoscroll
slow
fast
+/-
esc
set tempo
stop
About this tab version
With tabs and more chords. Was this info helpful? Yes No
Strumming
There is no strumming pattern for this song yet. and get +5 IQ
[Chords]
Intro/verse/pre-chorus/chorus/outro          How I play the chords for most of the song
Am - G/D - G - F - Em or G                     Am    G/D    G     F    Em
                                             e|---   ---   -3-   -1-   -0-
                                             B|-1-   -3-   -3-   -1-   -0-
Bridge                                       G|-2-   -4-   -4-   -2-   -0-
Am - G - Fmaj7 - G                           D|-2-   -5-   -5-   -3-   -2-
                                             A|-0-   -5-   ---   -3-   -2-
                                             E|---   ---   ---   -1-   -0-

How I play the chords for the bridge
  Am     G     Fmaj7 for the first time   Fmaj7 for the secound time
e|-5-   -3-    -0-                        -8-
B|-5-   -3-    -1-                        -10-
G|-5-   -4-    -2-                        -9-
D|-7-   -5-    -3-                        -10-
A|-7-   -5-    -3-                        -8-
E|-5-   -3-    ---                        ---

(Tabs)
[Intro/verse/pre-chorus/chorus/outro]
e|--------------|------------3--|-----------0h3|--------------|
B|-1--1----1----|-1--1----3--3--|----------1---|--------------|
G|-2--2----2----|-2--2----4--4--|-2--2----2----|-2--2--2---0-0|
D|-2--2----2----|-2--2----5--5--|-3--3---------|-3--3--3---2-2|
A|-0--0----0----|-0--0----5-----|-3--3---------|-3--3--3---2-2|
E|--------------|---------------|-1--1--1------|-1--1--1---0-0|

If you want more energi, as you might feel like doing in the pre-chorus, play some more Am, start strumming
and perhaps play G instead of Em at the end.
e|--------------|------------3--|-----------0h3|--------------|
B|-1-1-1--1--1--|-1-1-1---3--3--|----------1---|--------------|
G|-2-2-2--2--2--|-2-2-2---4--4--|-2--2----2----|-2--2--2---4-4|
D|-2-2-2--2--2--|-2-2-2---5--5--|-3--3---------|-3--3--3---5-5|
A|-0-0-0--0--0--|-0-0-0---5-----|-3--3---------|-3--3--3---5-5|
E|--------------|---------------|-1--1--1------|-1--1--1---3-3|

[Bridge]
e|-8-7-5-3-----|-5-3---------|-0-----0---0-|-0-----0---0-|
B|-5-------5-5-|-----5-3---3-|-1-----1---1-|-1-----1---1-|
G|-------5-----|-5-------5---|-2-----2---2-|-2-----2---2-|
D|-------------|-------------|-3-----3---3-|-3-----3---3-|
A|-0-----0-----|-0-----0-----|-3-----3---3-|-3-----3---3-|
E|-------------|-------------|-------------|-------------|

e|-8-7-5-3-----|-5-3---------|-8-----8---8-|-8-----8---10|
B|-5-------5-5-|-----5-3---3-|-10----10--10|-10----10--12|
G|-------5-----|-5-------5---|-9-----9---9-|-9-----9---12|
D|-------------|-------------|-10----10--10|-10----10--12|
A|-0-----0-----|-0-----0-----|-8-----8---8-|-8-----8---10|
E|-------------|-------------|-------------|-------------|

If you are not playing with the song, I find this bridge more interesting
e|-8-7-5-3-----|-5-3---------|-0-----0---0-|-0-----0---0-|
B|-5-------5---|-----5-3---3-|-1-----1---1-|-1-----1---1-|
G|-------4-----|-5-----4-5---|-2-----2---2-|-2-----2---2-|
D|-------------|-------------|-3-----3---3-|-3-----3---3-|
A|-0-----------|-0-----------|-3-----3---3-|-3-----3---3-|
E|-------3-----|-------3-----|-------------|-------------|

e|-8-7-5-3-----|-5-3---------|-8-----8---8-|-8-----8---10|
B|-5-------5---|-----5-3---3-|-10----10--10|-10----10--12|
G|-------4-----|-5-----4-5---|-9-----9---9-|-9-----9---12|
D|-------------|-------------|-10----10--10|-10----10--12|
A|-0-----------|-0-----------|-8-----8---8-|-8-----8---10|
E|-------3-----|-------3-----|-------------|-------------|

[Intro]
Am                 G/D G     F      Em
One, one, one...

[Verse 1]
Am                                               G/D  G
Talkin' in my sleep at night, makin' myself crazy
F                               Em
(Out of my mind, out of my mind)
Am                                                   G/D  G
Wrote it down and read it out, hopin' it would save me
F                               Em
(Too many times, too many times)
Am                                  G/D  G  F
My love, he makes me feel like nobody else, nobody else
Em       Am                           G/D  G      F               Em
But my love, he doesn't love me, so I tell myself, I tell myself

[Pre-Chorus]
Am
One, don't pick up the phone
                                                     G/D  G
You know he's only calling 'cause he's drunk and alone
F
Two, don't let him in
                                Em
You'll have to kick him out again
Am
Three, don't be his friend
                                                G/D  G
You know you're gonna wake up in his bed in the morning
F                                                 G
And if you're under him, you ain't getting over him

[Chorus]

I got new rules, I count 'em
Am               G/D  G     F
I got new rules, I count 'em
               G  Am
I gotta tell them to myself
                  G/D  G
I got new rules, I count 'em
F                           G
I gotta tell them to myself

[Verse 2]
Am                                                       G/D  G
I keep pushin' forwards, but he keeps pullin' me backwards
F
(Nowhere to turn) No way
                  Em
(Nowhere to turn) No
Am                                                      G/D  G
Now I'm standing back from it, I finally see the pattern
F                            G
(I never learn, I never learn)
Am                                     G/D  G     F
But my love, he doesn't love me, so I tell myself, I tell myself
            Em
I do, I do, I do

[Pre-Chorus]
Am
One, don't pick up the phone
                                                     G/D  G
You know he's only calling 'cause he's drunk and alone
F
Two, don't let him in
                                Em
You'll have to kick him out again
Am
Three, don't be his friend
                                                G/D  G
You know you're gonna wake up in his bed in the morning
F                                                 G
And if you're under him, you ain't getting over him

[Chorus]

I got new rules, I count 'em
Am               G/D  G     F
I got new rules, I count 'em
              G  Am
I gotta tell them to myself
                  G/D  G
I got new rules, I count 'em
F                           G
I gotta tell them to myself

[Bridge]
Am
Practice makes perfect                             e|-8-7-5-3-----|-5-3---------|-0-----0---0-|-0-----0---0-|
                          G   Fmaj7                B|-5-------5-5-|-----5-3---3-|-1-----1---1-|-1-----1---1-|
I'm still tryna' learn it by heart                 G|-------5-----|-5-------5---|-2-----2---2-|-2-----2---2-|
                              G                    D|-------------|-------------|-3-----3---3-|-3-----3---3-|
(I got new rules, I count 'em)                     A|-0-----0-----|-0-----0-----|-3-----3---3-|-3-----3---3-|
Am                                                 E|-------------|-------------|-------------|-------------|
Eat, sleep, and breathe it
                          G    Fmaj7               e|-8-7-5-3-----|-5-3---------|-8-----8---8-|-8-----8---10|
Rehearse and repeat it, 'cause I                   B|-5-------5-5-|-----5-3---3-|-10----10--10|-10----10--12|
                                                   G|-------5-----|-5-------5---|-9-----9---9-|-9-----9---12|
(I got new, I got new, I...)                       D|-------------|-------------|-10----10--10|-10----10--12|
                                                   A|-0-----0-----|-0-----0-----|-8-----8---8-|-8-----8---10|
                                                   E|-------------|-------------|-------------|-------------|
Am
One, don't pick up the phone
                                                     G/D  G
You know he's only calling 'cause he's drunk and alone
F
Two, don't let him in
                                Em
You'll have to kick him out again
Am
Three, don't be his friend
                                                G/D  G
You know you're gonna wake up in his bed in the morning
F                                                 G
And if you're under him, you ain't getting over him

[Chorus]

I got new rules, I count 'em
Am               G/D  G     F
I got new rules, I count 'em
              G  Am
I gotta tell them to myself
                  G/D  G
I got new rules, I count 'em
F                           G
I gotta tell them to myself

[Outro]
Am
Don't let him in, don't let him in
                      G/D  G
Don't, don't, don't, don't
F
Don't be his friend, don't be his friend
                     Em
Don't, don't, don't, don't
Am
Don't let him in, don't let him in
                         G/D  G
Don't, don't, don't, don't
 F
Don't be his friend, don't be his friend
                         Em
Don't, don't, don't, don't
Am
You gettin' over him
Suggest correction
Creating personal tab
Creating personal tab
You can edit any tab online and save it as your Personal.

You can edit, replace or remove any tab part or add personal notes – all changes will be seen only by you.

Personal tabs can be accessed anytime from any device, even offline.
Learn more »
comments
print report bad tab
guest
You may want to rate the tab now too:
select rating
Wanna post a correction for this tab? Suggest correction