Oops, an error
Loading. Please wait.

We Hate Paramore tab

9,465 views 1 this week
18 commentsread comments
1 2 3 4 5
x 4
add to favorites
×
Save as Personal and add changes to this tab that will be seen only by you. Learn more ›
×
You can save this tab as Personal to edit and correct it or add notes. All changes will be seen only by you. Learn more »
launch autoscroll
font size
0
reset
how to read this tab
guitar tuner
edit
Autoscroll
slow
fast
+/-
esc
set tempo
stop
[Intro]

Guitar 1

Part 1:
D#|--------------------------------------------------|
A#|--------------------------------------------------|
F#|--------------------------------------------------|
C#|-9-9-9-9-9-9-9-9-9-9-9-9--5-5-5-5-5-5-5-5-5-5-5-5-|
G#|-9-9-9-9-9-9-9-9-9-9-9-9--5-5-5-5-5-5-5-5-5-5-5-5-|
C#|-9-9-9-9-9-9-9-9-9-9-9-9--5-5-5-5-5-5-5-5-5-5-5-5-|(x4)

Part 2:
D#|--------------------------|-----------------------|
A#|--------------------------|-----------------------|
F#|--------------------------|-------------7-7-------|
C#|-9-9-9-9--11--9-9--11--12-|-5-5-5-5--7-------5--7-|
G#|-9-9-9-9--9---9-9--9---9--|-5-5-5-5--5--5-5--7--7-|
C#|-9-9-9-9--9---9-9--9---9--|-5-5-5-5--5--5-5--5--5-|(x4)


Guitar 2 
(repeat until verse)

D#|----------------------------------------|-----------------------------------------|
A#|----------------------------------------|-----------------------------------------|
F#|----------------------------------------|-----------------------------------------|
C#|-11-11-11-11-11-11-11-9-9-9-9-9-12-11-9-|-----------------------------------------|
G#|----------------------------------------|-12-12-12-12-12-12-9-9-9-9-10-10-10-10-9-|
C#|----------------------------------------|-----------------------------------------|

Guitar 1       
D#|---------------|---------------------|
A#|---------------|---------------------|
F#|---------------|------7--------------|
C#|---------------|----8---8-----8----8-|
G#|-----3h5-------|-10---------8----7---|
C#|-0-0-----5-3-2-|---------------------|(x3)

Guitar 2 
D#|---------------------|---------------------------|
A#|---------------------|---------------------------|
F#|---------------------|---------------------------|
C#|--------------12-8-7-|-------8----8------8-----8-|
G#|-------10h12---------|-10-10---10----8-8---7-7---|
C#|-12-12---------------|---------------------------|(x3)


[Chorus]

Guitar 1 
D#|---------------------------------------------------------------------------|
A#|---------------------------------------------------------------------------|
F#|-7-7-7-7-7--10-10-10-10-10-------------10-10-10-10-10--7-7-7-7--5-5-5-5--7-|
C#|-7-7-7-7-7--10-10-10-10-10--12-10------10-10-10-10-10--7-7-7-7--5-5-5-5--7-|
G#|-5-5-5-5-5--8--8--8--8--8---------12---8--8--8--8--8—--5-5-5-5--3-3-3-3--5-|
C#|-0-0-0-0-0-----------------------------8--8--8--8--8—--5-5-5-5--3-3-3-3--5-|(x3)

Guitar 2 
D#|------------------------------------------------------|
A#|------------------------------------------------------|
F#|-------10-12-14------------15-15-15—15-12-12-12-12—10-|
C#|-12-12-----------15-14-12-----------------------------|
G#|------------------------------------------------------|
C#|------------------------------------------------------|

D#|-------------------------------------------------------|
A#|-------------------------------------------------------|
F#|-------10-12-14----------15-15-15-15-12-12-12-12-15-14-|
C#|-12-12----------15-14-12-------------------------------|
G#|-------------------------------------------------------|
C#|-------------------------------------------------------|

D#|------------------------------------------------------|
A#|------------------------------------------------------|
F#|-------10-12-14----------15-15-15-15-12-12-12-12-10-9-|
C#|-12-12----------15-14-12------------------------------|
G#|------------------------------------------------------|
C#|------------------------------------------------------|


[Bridge]

D#|----------------------------|------------------------------|
A#|----------------------------|------------------------------|
F#|----------------------------|------------------------------|
C#|----------------------------|------------------------------|
G#|----------------------------|------------------------------|
C#|-0-0--0-0-0--0-0-0--0-0--1--|--0-0--0-0-0--0-0-0--0-0--3b--|

D#|-----------------------------|-------------------------------|
A#|-----------------------------|-------------------------------|
F#|-----------------------------|-------------------------------|
C#|-----------------------------|-------------------------------|
G#|-----------------------------|-------------------------3-5-1-|
C#|--0-0--0-0-0--0-0-0--0-0--5--|--0-0--0-0-0--0-0-0--0-0-------|

D#|----------------------------|------------------------------|
A#|----------------------------|------------------------------|
F#|----------------------------|------------------------------|
C#|-------------------------7--|------------------------3-2---|
G#|-5-5--5-5-5--5-5-5--5-5-----|-5-5--5-5-5--5-5-5--5-5-----3-|
C#|----------------------------|------------------------------|

D#|---------------------------------|------------------------------|
A#|---------------------------------|------------------------------|
F#|---------------------------------|------------------------------|
C#|------------------------12-10----|------------------------------|
G#|-5-5--5-5-5--5-5-5--5-5-------12-|-5-5--5-5-5--5-5-5--5-5-------|
C#|---------------------------------|------------------------5-4-2-|




************************************

| h  Hammer-on
| b  Bend

************************************
Suggest correction
Creating personal tab
Creating personal tab
You can edit any tab online and save it as your Personal.

You can edit, replace or remove any tab part or add personal notes – all changes will be seen only by you.

Personal tabs can be accessed anytime from any device, even offline.
Learn more »
comments
print report bad tab
18 comments total. Showing first comments.
+6 reply
andres1 106 Mar 14, 2009 08:48 PM

i typed in paramore but i forgot to put band names and left it on song names and i found this
whoever this band is sucks
paramore rules!!

+4 reply
guitaristsasha 41 Mar 19, 2009 03:07 PM

same here.
hahah i did the same thing!

paramore is amazing:D

+4 reply
Chaz_Star123 10 Apr 04, 2009 09:57 AM

Paramore is awesome, just because this band sucks ass!

guest
Wanna post a correction for this tab? Suggest correction