Oops, an error
Loading. Please wait.

Peter Gunn Theme tab

6,388 views 3 this week
3 commentsread comments
1 2 3 4 5
x 3
add to favorites
×
Save as Personal and add changes to this tab that will be seen only by you. Learn more ›
×
You can save this tab as Personal to edit and correct it or add notes. All changes will be seen only by you. Learn more »
launch autoscroll
font size
0
reset
how to read this tab
guitar tuner
edit
Autoscroll
slow
fast
+/-
esc
set tempo
stop
Author
Unregistered
#----------------------------------PLEASE NOTE--------------------------------#
#This file is the author's own work and represents their interpretation of the#
#song. You may only use this file for private study, scholarship, or research.#
#-----------------------------------------------------------------------------#
#-- File created with Instab - http://www.pconline.com/~smcarey/instab.html --#
#-----------------------------------------------------------------------------#

Author/Artist: Duane Eddy
Title: Peter Gunn theme
Transcribed by: Andy Vanord
Email: guitar_freak5@hotmail.com

Not many people know Duane Eddy did this, I'm
just setting the records straight.

------------------------------------------------------------------------------|
------------------------------------------------------------------------------|
------------------------------------------------------------------------------|
------------------------------------------------------------------------------|
------------------------------------------------------------------------------|
-0-0-10-20-54-----------------------------------------------------------------|
 That is the basic guitar part of the song, use a clean sound.

------------------------------------------------------------------------------|
------------------------------------------------------------------------------|
------------------------------------------------------------------------------|
------------------------------------------------------------------------------|
------------------------------------------------------------------------------|
------------------------------------------------------------------------------|

            
            
Suggest correction
Creating personal tab
Creating personal tab
You can edit any tab online and save it as your Personal.

You can edit, replace or remove any tab part or add personal notes – all changes will be seen only by you.

Personal tabs can be accessed anytime from any device, even offline.
Learn more »
Give kudos to tab author, rate the tab!
1 2 3 4 5
comments
print report bad tab
3 comments total.
0 reply
awareofvacuity 10 Sep 07, 2005 08:00 PM

I think you've got it wrong (if this is the same song I am thinking of) on the E string I use 00203053

0 reply
tabak0 10 Jul 02, 2006 11:02 AM

the tab is written wrong and the tab itself is wrong. it should be a lot more similar to this...
--0-0-2-0-3-0-5-3--
or
--0-0-2-0-3-0-5-4--
plus it was too short and u dindt explain the ending part.

0 reply
Rabuk 31 Jan 05, 2011 07:28 AM

awareofvacuity is correct the tab starts
fat E

0-0-2-0-3-0-5-3

guest
Wanna post a correction for this tab? Suggest correction