Oops, an error
Loading. Please wait.

Peter Gunn Tab

version 4
version 4

Interactive

2,145 views 6 this week
2 commentsread comments
1 2 3 4 5
worth learning
x 3
add to favorites
launch autoscroll
font size
0
reset
how to read this tab
guitar tuner
Autoscroll
slow
fast
+/-
esc
set tempo
stop
Help us to improve Ultimate-Guitar.com Take our survey!
×
Author
Difficulty
novice
I think this is correct


e|-----------------------------------------------------------|
B|-----------------------------------------------------------|
G|-----------------------------------------------------------|
D|----------------------------------------------------2------|
A|---------------------0-2-----2-------0--0-----0--4----2----|
E|--2b—-0---------0-4------------4--0------------------------|

e|-----------------------------------------------------------|
B|-----------------------------------------------------------|
G|-----------------------------------------------------------|
D|-----------------------------------------------------------|
A|---------------------0-2-----------0---2-2-----------------|
E|--2b—-0---------0-4------------0-4------------2b-0---------|

e|-----------------------------------------------------------|
B|-----------------------------------------------------------|
G|-----------------------------------------------------------|
D|------------------------------------------------------2----|
A|---------------------0-2-----2-------0--0-------0--4----2--|
E|--2b--0---------0-4------------4--0------------------------|

e|-----------------------------------------------------------|
B|-----------------------------------------------------------|
G|-----------------------------------------------------------|
D|-----------------------------------------------------------|
A|--------------------0--2------------0-2--2-----------------|
E|--2p—-0---------0-4------------0-4-------------2b-0--------|
				Repeat 3 & 4
e|-----------------------------------------------------------|
B|-----------------------------------------------------------|
G|-----------------------------------------------------------|
D|--------------------------------------------------0-3------|
A|--------------------0-1-3----—3-0----1---------1-------3---|
E|--0-0-1-1-1--------1---------------1-----------------------|

e|-----------------------------------------------------------|
B|-----------------------------------------------------------|
G|-----------------------------------------------------------|
D|-----------------------------------------------------------|
A|--------------------0-1-3-3------0—1-3-3-------------------|
E|--3b-1------------1------------1----------3b—1-------------|
				MUSIC THEN
	
e|-----------------------------------------------------------|
B|-----------------------------------------------------------|
G|-----------------------------------------------------------|
D|------------------------------------------------1--4-------|
A|--------------------1--2—-4-----4--1---2------2------4-----|
E|--3b-1---1---2----2------------------2---------------------|

e|-----------------------------------------------------------|
B|-----------------------------------------------------------|
G|-----------------------------------------------------------|
D|-----------------------------------------------------------|
A|---------------1-2-4-------1-2-4-4-------------------------|
E|--4b-2-------2-----------2---------4b-2--------------------|

e|-----------------------------------------------------------|
B|-----------------------------------------------------------|
G|-----------------------------------0-----------------------|
D|----------------0--0-------------2--0----------------------|
A|-----------2-3-------2---3-----3---------------------------|
E|---2--3--3-------------3-----------------------------------|

e|-----------------------------------------------------------|
B|-----------------------------------------------------------|
G|-----------------------------------------------------------|
D|----------------------0-----------0------------------------|
A|-----------------2-3---------2-3---------------------------|
E|--5b-3--------3-----------3------------5b-3—5b-------------|

Suggest correction
Give kudos to tab author, rate the tab!
1 2 3 4 5
comments
print report bad tab
2 comments total.
0 reply
Antsta96 206 wrote on May 30 2011, 08:41 am

Hey Rabuk,Great tab...... but its the wrong song matey, the tab's for Rebel Rouser not Peter Gunn :)

Keep Rockin'
Anthony

0 reply
Kraziekhat 57,726 wrote on September 28 2013, 04:41 am

Just change the name to 'Rebel Rouser' and it's a good
tab. KK.
P.S. 5 stars. KK

guest
You may want to rate the tab now too:
select rating
Please do not post tabs as comments. Select "correction" instead!