Oops, an error
Loading. Please wait.

Peter Gunn Tab

version 4
version 4

Whole song

Interactive

1,014 views 3 this week
no commentswrite comment
1 2 3 4 5
2 more votes to show rating
add to favorites
launch autoscroll
font size
0
reset
how to read this tab
guitar tuner
×
Best way to learn
"Peter Gunn"
Autoscroll
slow
fast
+/-
esc
set tempo
stop
Author
Difficulty
Capo
intermediate
1st fret
PETER GUNN

As recorded by Duane Eddy
(From the 1959 Album ESPECIALLY FOR YOU)

Music by Henry Mancini
Arranged by Duane Eddy

Transcribed by Slowhand


To play along with the recording tune all Gtrs. 1/2 step up or capo 1st fret:

Gtr I (F A# D# G# C F) - 'Duane Eddy - Electric Guitar '
Gtr II (F A# D# G# C F) - 'Casey O'Dell - Electric Guitar '
Gtr III (F A# D# G# C F) - 'Steve Douglas - Saxophone '

  Q=128
  N.C.
 4/4
  Gtr I
  \0.5         \0.5           \0.5         \0.5
  E    +E  E E E    +E  E E   E    +E  E E E    +E  E E
|---------------------------|---------------------------|
|---------------------------|---------------------------|
|---------------------------|---------------------------|
|---------------------------|---------------------------|
|---------------------------|---------------------------|
|-0----(0)-0-0-0----(0)-0-0-|-0----(0)-0-0-0----(0)-0-0-|
|
| Gtr II
| W                           W
|---------------------------|---------------------------|
|---------------------------|---------------------------|
|---------------------------|---------------------------|
|---------------------------|---------------------------|
|---------------------------|---------------------------|
|---------------------------|---------------------------|


  E E E E E E E E   E E E E E E E E
|-----------------|------------------||
|-----------------|------------------||
|-----------------|------------------||
|-----------------|------------------||
|-----------------|------------------||
|-0-0-2-0-3-0-5-3-|-0-0-2-0-3-0-5-3--||
|
| PM------------------------------|
| E E E E E E E E   E E E E E E E E
|-----------------|------------------||
|-----------------|------------------||
|-----------------|------------------||
|---------0---2-0-|---------0---2-0--||
|-2-2-4-2---2-----|-2-2-4-2---2------||
|-----------------|------------------||


  N.C.
  E E E E E E E E   E  E E E E E E E
|-----------------|------------------|
|-----------------|------------------|
|-----------------|------------------|
|-----------------|------------------|
|-----------------|------------------|
|-0-0-2-0-3-0-5-3-|-0--0-2-0-3-0-5-3-|
|
| PM----------------------------------
| E E E E E E E E   E  E E E E E E E
|-----------------|------------------|
|-----------------|------------------|
|-----------------|------------------|
|---------0---2-0-|----------0---2-0-|
|-2-2-4-2---2-----|-2--2-4-2---2-----|
|-----------------|------------------|
|
| Gtr III
| ~
| W                 Q    Q   H
|-----------------|------------------|
|-----------------|------------------|
|-7---------------|-7\---------------|
|-----------------|------------------|
|-----------------|------------------|
|-----------------|------------------|


    E   E  E  E E E E E   E E  E E E E E E
|-----------------------|-------------------|
|-----------------------|-------------------|
|-----------------------|-------------------|
|-----------------------|-------------------|
|-----------------------|-------------------|
|---0---0--2--0-3-0-5-3-|-0-0--2-0-3-0-5-3--|
|
|----------------------------------------|
|   E   E  E  E E E E E   E E  E E E E E E
|-----------------------|-------------------|
|-----------------------|-------------------|
|-----------------------|-------------------|
|---------------0---2-0-|----------0---2-0--|
|---2---2--4--2---2-----|-2-2--4-2---2------|
|-----------------------|-------------------|
|
|       ~~~~~~
| a E a E +H.             E E  Q   H
|-----------------------|-7-----------------|
|-----------------------|---6\--------------|
|-6h7-6h7-(7)-----------|-------------------|
|-----------------------|-------------------|
|-----------------------|-------------------|
|-----------------------|-------------------|


  E E E E    E E      E      E      E E E E E E E E
|------------------------------|--------------------|
|------------------------------|--------------------|
|------------------------------|--------------------|
|------------------------------|--------------------|
|------------------------------|--------------------|
|-0-0-2-0----3-0------5------3-|----0-0-2-0-3-0-5-3-|
|
| PM-------------------------------------------------
| E E E E    E E      E      E      E E E E E E E E
|------------------------------|--------------------|
|------------------------------|--------------------|
|------------------------------|--------------------|
|------------0--------2------0-|------------0---2-0-|
|-2-2-4-2------2---------------|----2-2-4-2---2-----|
|------------------------------|--------------------|
|
|                                           ~
|            |------3------|
| E E E E a  Q   a  Q   a  Q     a  Q   E E Q   E E
|------------------------------|--------------------|
|------------------------------|--------------------|
|-----7-9-9h10---9h10---9h10---|-9h10---9-7---------|
|---9--------------------------|------------9---7-9-|
|------------------------------|--------------------|
|------------------------------|--------------------|


  E  E E E E E E E   E E E E E E E E
|------------------|------------------|
|------------------|------------------|
|------------------|------------------|
|------------------|------------------|
|------------------|------------------|
|-0--0-2-0-3-0-5-3-|-0-0-2-0-3-0-5-3--|
|
|----------------------------------|
| E  E E E E E E E   E E E E E E E E
|------------------|------------------|
|------------------|------------------|
|------------------|------------------|
|----------0---2-0-|---------0---2-0--|
|-2--2-4-2---2-----|-2-2-4-2---2------|
|------------------|------------------|
|
| Q    E E q   Q     W
|------------------|------------------|
|------------------|------------------|
|------------------|------------------|
|-5/---------------|------------------|
|------7-5-7-------|------------------|
|------------------|------------------|


  E E E E E E E E   E  E E E E E E E
|-----------------|------------------|
|-----------------|------------------|
|-----------------|------------------|
|-----------------|------------------|
|-----------------|------------------|
|-0-0-2-0-3-0-5-3-|-0--0-2-0-3-0-5-3-|
|
| PM----------------------------------
| E E E E E E E E   E  E E E E E E E
|-----------------|------------------|
|-----------------|------------------|
|-----------------|------------------|
|---------0---2-0-|----------0---2-0-|
|-2-2-4-2---2-----|-2--2-4-2---2-----|
|-----------------|------------------|
|
| ~
| W                 Q    Q   H
|-----------------|------------------|
|-----------------|------------------|
|-7---------------|-7\---------------|
|-----------------|------------------|
|-----------------|------------------|
|-----------------|------------------|


    E   E  E  E E E E E   E E  E E E E E E
|-----------------------|-------------------|
|-----------------------|-------------------|
|-----------------------|-------------------|
|-----------------------|-------------------|
|-----------------------|-------------------|
|---0---0--2--0-3-0-5-3-|-0-0--2-0-3-0-5-3--|
|
|----------------------------------------|
|   E   E  E  E E E E E   E E  E E E E E E
|-----------------------|-------------------|
|-----------------------|-------------------|
|-----------------------|-------------------|
|---------------0---2-0-|----------0---2-0--|
|---2---2--4--2---2-----|-2-2--4-2---2------|
|-----------------------|-------------------|
|
|       ~~~~~~
| a E a E +H.             E E  Q   H
|-----------------------|-7-----------------|
|-----------------------|---6\--------------|
|-6h7-6h7-(7)-----------|-------------------|
|-----------------------|-------------------|
|-----------------------|-------------------|
|-----------------------|-------------------|


  E E E E    E E      E      E      E E E E E E E E
|------------------------------|--------------------|
|------------------------------|--------------------|
|------------------------------|--------------------|
|------------------------------|--------------------|
|------------------------------|--------------------|
|-0-0-2-0----3-0------5------3-|----0-0-2-0-3-0-5-3-|
|
| PM-------------------------------------------------
| E E E E    E E      E      E      E E E E E E E E
|------------------------------|--------------------|
|------------------------------|--------------------|
|------------------------------|--------------------|
|------------0--------2------0-|------------0---2-0-|
|-2-2-4-2------2---------------|----2-2-4-2---2-----|
|------------------------------|--------------------|
|
|                                           ~
|            |------3------|
| E E E E a  Q   a  Q   a  Q     a  Q   E E Q   E E
|------------------------------|--------------------|
|------------------------------|--------------------|
|-----7-9-9h10---9h10---9h10---|-9h10---9-7---------|
|---9--------------------------|------------9---7-9-|
|------------------------------|--------------------|
|------------------------------|--------------------|


  E  E E E E E E E   E E E E E E E E
|------------------|------------------||
|------------------|------------------||
|------------------|------------------||
|------------------|------------------||
|------------------|------------------||
|-0--0-2-0-3-0-5-3-|-0-0-2-0-3-0-5-3--||
|
|----------------------------------|
| E  E E E E E E E   E E E E E E E E
|------------------|------------------||
|------------------|------------------||
|------------------|------------------||
|----------0---2-0-|---------0---2-0--||
|-2--2-4-2---2-----|-2-2-4-2---2------||
|------------------|------------------||
|
| Q    E E q   Q     H       E e e E
|------------------|------------------||
|------------------|------------------||
|------------------|------------------||
|-5/---------------|-----------9-9-9--||
|------7-5-7-------|------------------||
|------------------|------------------||


  E E Q       E E Q     H           E E E E
|---------------------|---------------------|
|---------------------|---------------------|
|---------------------|---------------------|
|---------------------|---------------------|
|---------------------|---------------2-2---|
|-0-------------0-0---|---------------------|
|
| E E Q       E E E E   H           E E E E
|---------------------|---------------------|
|---------------------|---------------------|
|---------------------|---------------------|
|---------------------|---------------------|
|-2-------------2-2---|---------------0-----|
|---------------------|-----------------3---|
|
|     |-3-|                 |-3-|
| E E S S S E E E Q     E E S S S E E E Q
|---------------------|---------------------|
|---------------------|---------------------|
|---9-7h9p7-----------|---9-7h9p7---7-------|
|-9---------9-5-------|-9---------9---------|
|---------------7-----|---------------------|
|---------------------|---------------------|


                        \0.5         \0.5
  W                     E    +E  E E E    +E  E    E
|---------------------|------------------------------||
|---------------------|------------------------------||
|---------------------|------------------------------||
|---------------------|------------------------------||
|---------------------|------------------------------||
|---------------------|-0----(0)-0-0-0----(0)-0----0-||
|
| W                     W
|---------------------|------------------------------||
|---------------------|------------------------------||
|---------------------|------------------------------||
|---------------------|------------------------------||
|---------------------|------------------------------||
|---------------------|------------------------------||
|
|     |-3-|
| E E S S S E E E E E   E     E  E E Q        S  S E
|---------------------|------------------------------||
|---------------------|------------------------------||
|---9-7h9p7-----------|----------------------------9-||
|-9---------9-5-------|-----------------------9h11---||
|---------------7-7-5-|-7-----7--9-7-7---------------||
|---------------------|------------------------------||


  N.C.
          E  E E E E E   E    E       E E E  E   E   E  E  E
|-----------------------------------|---------------------------|
|-----------------------------------|---------------------------|
|-----------------------------------|---------------------------|
|-----------------------------------|---------------------------|
|-----------------------------------|---------------------------|
|---------0--0-2-0-3-0---5----3-----|-0-0-2--0---3---0--5--3----|
|
|         PM-----------------------------------------------------
|         E  E E E E E   E    E       E E E  E   E   E  E  E
|-----------------------------------|---------------------------|
|-----------------------------------|---------------------------|
|-----------------------------------|---------------------------|
|------------------0-----2----0-----|------------0------2--0----|
|---------2--2-4-2---2--------------|-2-2-4--2-------2----------|
|-----------------------------------|---------------------------|
|
|  a      H.            +E    E       Q   E  E  +E   E  E  S  S
|-----------------------------------|---------------------------|
|-----------------------------------|------------------12-------|
|-11b12==11------------(11)r-11b12\-|-------12-(12)-------14p12-|
|-----------------------------------|---------------14----------|
|-----------------------------------|---------------------------|
|-----------------------------------|---------------------------|


   E  E   E  E   E  E  E  E    E  E E E E  E   E     E
|---------------------------|------------------------------|
|---------------------------|------------------------------|
|---------------------------|------------------------------|
|---------------------------|------------------------------|
|---------------------------|------------------------------|
|--0--0---2--0---3--0--5--3-|--0--0-2-0-3--0---5-----3-----|
|
|----------------------------------------------------|
|  E  E   E  E   E  E  E  E    E  E E E E  E   E     E
|---------------------------|------------------------------|
|---------------------------|------------------------------|
|---------------------------|------------------------------|
|----------------0-----2--0-|-----------0------2-----0-----|
|--2--2---4--2------2-------|--2--2-4-2----2---------------|
|---------------------------|------------------------------|
|
|                                              |---3----|
|  E  E  +Q     +Q     E  E    Q    Q   E  E  +E   E    E
|---------------------------|------------------------------|
|---------------------------|------------------------------|
|---------------------------|---------------------12---14--|
|-14-14-(14)---(14)---12----|-14\---------14-(14)----------|
|------------------------14-|------------------------------|
|---------------------------|------------------------------|


   E     E       E  E   E   E E E    E    E  E    E  E     E     E  E
|---------------------------------|-----------------------------------|
|---------------------------------|-----------------------------------|
|---------------------------------|-----------------------------------|
|---------------------------------|-----------------------------------|
|---------------------------------|-----------------------------------|
|--0-----0-------2--0---3---0-5-3-|--0----0--2----0--3-----0-----5--3-|
|
|  PM------------------------------------------------------------------
|  E     E       E  E   E   E E E    E    E  E    E  E     E     E  E
|---------------------------------|-----------------------------------|
|---------------------------------|-----------------------------------|
|---------------------------------|-----------------------------------|
|-----------------------0-----2-0-|------------------0-----------2--0-|
|--2-----2-------4--2-------2-----|--2----2--4----2--------2----------|
|---------------------------------|-----------------------------------|
|
|        ~~~~~~~~~~~~~~~~~~~
|  E     E      +Q     +H            Q       Q       E     E     E  E
|---------------------------------|-----------------------------------|
|---------------------------------|-----------------------------------|
|-14b16-14b16==(14)---(14)r-------|-14b16---14b16---14b16-14b16-14-12-|
|---------------------------------|-----------------------------------|
|---------------------------------|-----------------------------------|
|---------------------------------|-----------------------------------|


   E  E   E  E   E  E  E  E    E  E E E E  E  E E
|---------------------------|----------------------|
|---------------------------|----------------------|
|---------------------------|----------------------|
|---------------------------|----------------------|
|---------------------------|----------------------|
|--0--0---2--0---3--0--5--3-|--0--0-2-0-3--0--5-3--|
|
|-----------------------------------------------|
|  E  E   E  E   E  E  E  E    E  E E E E  E  E E
|---------------------------|----------------------|
|---------------------------|----------------------|
|---------------------------|----------------------|
|----------------0-----2--0-|-----------0-----2-0--|
|--2--2---4--2------2-------|--2--2-4-2----2-------|
|---------------------------|----------------------|
|
|  E  E  +Q     +Q     E  E    Q    Q   E  E  Q
|---------------------------|----------------------|
|---------------------------|----------------------|
|---------------------------|----------------------|
|-14-14-(14)---(14)---12----|-14\------------15----|
|------------------------14-|----------------------|
|---------------------------|-------------12-------|


   E  E   E  E   E  E   E   E    E E    E    E  E     E  E  E
|-----------------------------|-------------------------------|
|-----------------------------|-------------------------------|
|-----------------------------|-------------------------------|
|-----------------------------|-------------------------------|
|-----------------------------|-------------------------------|
|--0--0---2--0---3--0---5---3-|--0-0----2----0--3-----0--5--3-|
|
|  PM----------------------------------------------------------
|  E  E   E  E   E  E   E   E    E E    E    E  E     E  E  E
|-----------------------------|-------------------------------|
|-----------------------------|-------------------------------|
|-----------------------------|-------------------------------|
|----------------0------2---0-|-----------------0--------2--0-|
|--2--2---4--2------2---------|--2-2----4----2--------2-------|
|-----------------------------|-------------------------------|
|
|                                |----3----|
|  E  E  +Q     +Q     +E   E    Q    Q    Q    S  S  E  E  E
|-----------------------------|-------------------------------|
|-----------------------------|-------------------------------|
|--------------------------12h|=14---11--------12p11----------|
|-14-14-(14)---(14)---(14)----|-----------14---------14-12----|
|-----------------------------|----------------------------14-|
|-----------------------------|-------------------------------|


   E  E E E  E  E E E   E E E E E  E  E  E
|---------------------|--------------------|
|---------------------|--------------------|
|---------------------|--------------------|
|---------------------|--------------------|
|---------------------|--------------------|
|--0--0-2-0--3--0-5-3-|-0-0-2-0-3--0--5--3-|
|
|---------------------------------------|
|  E  E E E  E  E E E   E E E E E  E  E  E
|---------------------|--------------------|
|---------------------|--------------------|
|---------------------|--------------------|
|------------0----2-0-|---------0-----2--0-|
|--2--2-4-2-----2-----|-2-2-4-2----2-------|
|---------------------|--------------------|
|
|  E  E E E +Q    E E   Q   Q   E  E  E  E
|---------------------|--------------------|
|---------------------|--------------------|
|---------------------|--------------12-14-|
|---------------------|-----------14-------|
|-12-10-7-7-(7)---3---|-7------------------|
|-------------------5-|--------------------|


   E    E E  E       E    E       E  E     E    E       E   E  E    E  E     E
|--------------------------------------|------------------------------------------|
|--------------------------------------|------------------------------------------|
|--------------------------------------|------------------------------------------|
|--------------------------------------|------------------------------------------|
|--------------------------------------|------------------------------------------|
|--0----0-2--0-------3----0-------5--3-|---0----0-------2---0--3----0--5-----3----|
|
|  PM------------------------------------------------------------------------------
|  E    E E  E       E    E       E  E     E    E       E   E  E    E  E     E
|--------------------------------------|------------------------------------------|
|--------------------------------------|------------------------------------------|
|--------------------------------------|------------------------------------------|
|--------------------0------------2--0-|-----------------------0-------2-----0----|
|--2----2-4--2------------2------------|---2----2-------4---2-------2-------------|
|--------------------------------------|------------------------------------------|
|
|  Q.        E      +E    E      +Q       +E    E      +Q      Q       E     S  S
|--------------------------------------|------------------------------------------|
|--------------------------------------|------------------------------------------|
|-14b16-----14b16==(14)r-14b16==(14)---|-(14)r-14b16==(14)r---14b16---14b16-14p12-|
|--------------------------------------|------------------------------------------|
|--------------------------------------|------------------------------------------|
|--------------------------------------|------------------------------------------|


   E  E   E  E E  E     E  E    E E E E E E E E
|----------------------------|-------------------||
|----------------------------|-------------------||
|----------------------------|-------------------||
|----------------------------|-------------------||
|----------------------------|-------------------||
|--0--0---2--0-3--0-----5--3-|--0-0-2-0-3-0-5-3--||
|
|---------------------------------------------|
|  E  E   E  E E  E     E  E    E E E E E E E E
|----------------------------|-------------------||
|----------------------------|-------------------||
|----------------------------|-------------------||
|--------------0--------2--0-|----------0---2-0--||
|--2--2---4--2----2----------|--2-2-4-2---2------||
|----------------------------|-------------------||
|
|  E  E  +Q    E  S  S  E  E    Q   Q   H
|----------------------------|-------------------||
|----------------------------|-------------------||
|----------------------------|-------------------||
|-14-14-(14)-----14p12-------|-------------------||
|----------------------14-10-|-------------------||
|----------------------------|-12----------------||


          \0.5           \0.5         \0.5
  Q   E E E    +E  E E   E    +E  E E E    +E  E E   E E E E E E E E
|----------------------|---------------------------|-----------------|
|----------------------|---------------------------|-----------------|
|----------------------|---------------------------|-----------------|
|----------------------|---------------------------|-----------------|
|----------------------|---------------------------|-----------------|
|-0---0-0-0----(0)-0-0-|-0----(0)-0-0-0----(0)-0-0-|-0-0-2-0-3-0-5-3-|
|
| E E Q   H              W                           W
|----------------------|---------------------------|-----------------|
|----------------------|---------------------------|-----------------|
|----------------------|---------------------------|-----------------|
|----------------------|---------------------------|-----------------|
|-2--------------------|---------------------------|-----------------|
|----------------------|---------------------------|-----------------|


  E E E E E E E E   E E E E E E E E   E E E E E E E E
|-----------------|-----------------|-----------------|
|-----------------|-----------------|-----------------|
|-----------------|-----------------|-----------------|
|-----------------|-----------------|-----------------|
|-----------------|-----------------|-----------------|
|-0-0-2-0-3-0-5-3-|-0-0-2-0-3-0-5-3-|-0-0-2-0-3-0-5-3-|


  E E E E E E E E   E E E E E E E E   E E E E E E E E   E E E E E E E E
|-----------------|-----------------|-----------------|------------------||
|-----------------|-----------------|-----------------|------------------||
|-----------------|-----------------|-----------------|------------------||
|-----------------|-----------------|-----------------|------------------||
|-----------------|-----------------|-----------------|------------------||
|-0-0-2-0-3-0-5-3-|-0-0-2-0-3-0-5-3-|-0-0-2-0-3-0-5-3-|-0-0-2-0-3-0-5-3--||
|
| Gtr II
| PM------------------------------------------------------------------|
| E E E E E E E E   E E E E E E E E   E E E E E E E E   E E E E E E E E
|-----------------|-----------------|-----------------|------------------||
|-----------------|-----------------|-----------------|------------------||
|-----------------|-----------------|-----------------|------------------||
|---------0---2-0-|---------0---2-0-|---------0---2-0-|---------0---2-0--||
|-2-2-4-2---2-----|-2-2-4-2---2-----|-2-2-4-2---2-----|-2-2-4-2---2------||
|-----------------|-----------------|-----------------|------------------||


    E E E E E E E E   E  E E E E E E E
||------------------|------------------|
||o-----------------|------------------|
||------------------|------------------|
||------------------|------------------|
||o-----------------|------------------|
||--0-0-2-0-3-0-5-3-|-0--0-2-0-3-0-5-3-|
|
|   PM----------------------------------
|   E E E E E E E E   E  E E E E E E E
||------------------|------------------|
||o-----------------|------------------|
||------------------|------------------|
||----------0---2-0-|----------0---2-0-|
||o-2-2-4-2---2-----|-2--2-4-2---2-----|
||------------------|------------------|
|
|   Gtr III
|   ~
|   W                 Q    Q   H
||------------------|------------------|
||o-----------------|------------------|
||--7---------------|-7\---------------|
||------------------|------------------|
||o-----------------|------------------|
||------------------|------------------|


    E   E  E  E E E E E   E E  E E E E E E
|-----------------------|------------------|
|-----------------------|------------------|
|-----------------------|------------------|
|-----------------------|------------------|
|-----------------------|------------------|
|---0---0--2--0-3-0-5-3-|-0-0--2-0-3-0-5-3-|
|
|----------------------------------------|
|   E   E  E  E E E E E   E E  E E E E E E
|-----------------------|------------------|
|-----------------------|------------------|
|-----------------------|------------------|
|---------------0---2-0-|----------0---2-0-|
|---2---2--4--2---2-----|-2-2--4-2---2-----|
|-----------------------|------------------|
|
|       ~~~~~~
| a E a E +H.             E E  Q   H
|-----------------------|-7----------------|
|-----------------------|---6\-------------|
|-6h7-6h7-(7)-----------|------------------|
|-----------------------|------------------|
|-----------------------|------------------|
|-----------------------|------------------|


  E E E E    E E      E      E      E E E E E E E E
|------------------------------|--------------------|
|------------------------------|--------------------|
|------------------------------|--------------------|
|------------------------------|--------------------|
|------------------------------|--------------------|
|-0-0-2-0----3-0------5------3-|----0-0-2-0-3-0-5-3-|
|
| PM-------------------------------------------------
| E E E E    E E      E      E      E E E E E E E E
|------------------------------|--------------------|
|------------------------------|--------------------|
|------------------------------|--------------------|
|------------0--------2------0-|------------0---2-0-|
|-2-2-4-2------2---------------|----2-2-4-2---2-----|
|------------------------------|--------------------|
|
|                                           ~
|            |------3------|
| E E E E a  Q   a  Q   a  Q     a  Q   E E Q   E E
|------------------------------|--------------------|
|------------------------------|--------------------|
|-----7-9-9h10---9h10---9h10---|-9h10---9-7---------|
|---9--------------------------|------------9---7-9-|
|------------------------------|--------------------|
|------------------------------|--------------------|


  E  E E E E E E E   E E E E E E E E
|------------------|-------------------||
|------------------|------------------o||
|------------------|-------------------||
|------------------|-------------------||
|------------------|------------------o||
|-0--0-2-0-3-0-5-3-|-0-0-2-0-3-0-5-3---||
|
|----------------------------------|
| E  E E E E E E E   E E E E E E E E
|------------------|-------------------||
|------------------|------------------o||
|------------------|-------------------||
|----------0---2-0-|---------0---2-0---||
|-2--2-4-2---2-----|-2-2-4-2---2------o||
|------------------|-------------------||
|
| Q    E E q   Q     W
|------------------|-------------------||
|------------------|------------------o||
|------------------|-------------------||
|-5/---------------|-------------------||
|------7-5-7-------|------------------o||
|------------------|-------------------||


  E E E E E E E E   E  E E E E E E E
|-----------------|------------------|
|-----------------|------------------|
|-----------------|------------------|
|-----------------|------------------|
|-----------------|------------------|
|-0-0-2-0-3-0-5-3-|-0--0-2-0-3-0-5-3-|
|
| PM----------------------------------
| E E E E E E E E   E  E E E E E E E
|-----------------|------------------|
|-----------------|------------------|
|-----------------|------------------|
|---------0---2-0-|----------0---2-0-|
|-2-2-4-2---2-----|-2--2-4-2---2-----|
|-----------------|------------------|
|
| ~
| W                 Q    Q   H
|-----------------|------------------|
|-----------------|------------------|
|-7---------------|-7\---------------|
|-----------------|------------------|
|-----------------|------------------|
|-----------------|------------------|


    E   E  E  E E E E E   E E  E E E E E E
|-----------------------|-------------------*|
|-----------------------|-------------------*|
|-----------------------|-------------------*|
|-----------------------|-------------------*|
|-----------------------|-------------------*|
|---0---0--2--0-3-0-5-3-|-0-0--2-0-3-0-5-3--*|
|
|----------------------------------------|
|   E   E  E  E E E E E   E E  E E E E E E
|-----------------------|-------------------*|
|-----------------------|-------------------*|
|-----------------------|-------------------*|
|---------------0---2-0-|----------0---2-0--*|
|---2---2--4--2---2-----|-2-2--4-2---2------*|
|-----------------------|-------------------*|
|
|       ~~~~~~
| a E a E +H.             E E  Q   H
|-----------------------|-7-----------------*|
|-----------------------|---6\--------------*|
|-6h7-6h7-(7)-----------|-------------------*|
|-----------------------|-------------------*|
|-----------------------|-------------------*|
|-----------------------|-------------------*|


Duration Legend
---------------
W - whole; H - half; Q - quarter; E - 8th; S - 16th; T - 32nd; X - 64th; a - acciaccatura
+ - note tied to previous; . - note dotted; .. - note double dotted
Uncapitalized letters represent notes that are staccato (1/2 duration)
Irregular groupings are notated above the duration line
Duration letters will always appear directly above the note/fret number it represents the
duration for.  Duration letters with no fret number below them represent rests.  Multi-
bar rests are notated in the form Wxn, where n is the number of bars to rest for.  Low
melody durations appear below the staff

Tablature Legend
----------------
 h   - hammer-on
 p   - pull-off
 b   - bend
 pb  - pre-bend
 r   - bend release (if no number after the r, then release immediately)
 /\  - slide into or out of (from/to "nowhere")
 s   - legato slide
 S   - shift slide
  - natural harmonic
[n]  - artificial harmonic
n(n) - tapped harmonic
 ~   - vibrato
 tr  - trill
 T   - tap
 TP  - trem. picking
 PM  - palm muting
\n/  - tremolo bar dip; n = amount to dip
 \n  - tremolo bar down
 n/  - tremolo bar up
/n\  - tremolo bar inverted dip
 =   - hold bend; also acts as connecting device for hammers/pulls
 <>  - volume swell (louder/softer)
 x   - on rhythm slash represents muted slash
 o   - on rhythm slash represents single note slash

Misc Legend
-----------
 |  - bar
||  - double bar
||o - repeat start
o|| - repeat end
*|  - double bar (ending)
 :  - bar (freetime)
 $  - Segno
 &  - Coda
Tempo markers -  = BPM(8/16=s8/s16), where s8 = swing 8ths, s16 = swing 16ths
Suggest correction
Give kudos to tab author, rate the tab!
1 2 3 4 5
comments
print report bad tab
guest
You may want to rate the tab now too:
select rating
Wanna post a correction for this tab? Suggest correction