Oops, an error
Loading. Please wait.

Rebel Rouser Tab

version 2
version 2

Interactive

19,402 views 9 this week
1 commentread comment
1 2 3 4 5
1 last vote to show rating
add to favorites
launch autoscroll
font size
0
reset
how to read this tab
guitar tuner
Autoscroll
slow
fast
+/-
esc
set tempo
stop
Help us to improve Ultimate-Guitar.com Take our survey!
×
Title: Rebel Rouser
Artist: Duane Eddy
Tabbed by: Luke Payro

Standard tuning

[Intro]

e|------------------------------------------------------|
B|------------------------------------------------------|
G|------------------------------------------------------|
D|------------------------------------------------------|
A|------------------0---2------2---------0-----0----4---|
E|-----2--0-----0--4--------------4---0-----------------|

e|------------------------------------------------------|
B|------------------------------------------------------|
G|------------------------------------------------------|
D|--2---------------------------------------------------|
A|----2-------------------------------------------------|
E|---------2--0----0---4---0--2----0--4--0--2-2----0--2-|

The Timing for the song is not here(sorry) but if you hear the song you will know the beat to it.  
During each pause in the song the chords go as follows:

E E A E E E B7  E
Suggest correction
Give kudos to tab author, rate the tab!
1 2 3 4 5
comments
print report bad tab
1 comment total.
+1 reply
Wicked-Klown14 0 May 18, 2002 12:00 AM

1st part is good but the bottom sucks

guest
You may want to rate the tab now too:
select rating
Wanna post a correction for this tab? Suggest correction