Oops, an error
Loading. Please wait.

Rebel Rouser Tab

version 4
version 4

Interactive

16,051 views 84 this week
1 commentread comment
1 2 3 4 5
excellent!
x 7
add to favorites
launch autoscroll
font size
0
reset
how to read this tab
guitar tuner
Tab Pro tools
  • play this tab
  • loop segment
  • change instrument
  • show fretboard
  • metronome
Autoscroll
slow
fast
+/-
esc
set tempo
stop
Contributor
I take no credit for this one as i have just tidied up what 
was already about to make one easy to read version.

Rebel Rouser
Duane Eddy


  
  e|------------------------------------|----------------------------------|
  B|------------------------------------|----------------------------------|
  G|------------------------------------|----------------------------------|
  D|-------------------------------2----|----------------------------------|
  A|-----------0-2--2-----0-0--0-4---2--|-----------0-2------0-2-2---------|
  E|-2b-0--0-4--------4-0---------------|-2b-0--0-4------0-4--------2b-0---| x2
                                                                 
  

  e|------------------------------------|----------------------------------|
  B|------------------------------------|----------------------------------|
  G|------------------------------------|----------------------------------|
  D|-------------------------------2----|----------------------------------|
  A|-----------0-2--2-----0-0--0-4---2--|-----------0-2------0-2-2---------|
  E|-2b-0--0-4--------4-0---------------|-2b-0--0-4------0-4--------2b-0---|

  e|------------------------------------|----------------------------------|
  B|------------------------------------|----------------------------------|
  G|------------------------------------|----------------------------------|
  D|------------------------------0-3---|----------------------------------|
  A|------------0-1-3--3-0---1--1-----3-|3----------0-1-3----0-1-3-3-------|
  E|-0-0-1-1--1------------1------------|---3b-1--1--------1----------3b-1-|

  e|------------------------------------|----------------------------------|
  B|------------------------------------|----------------------------------|
  G|------------------------------------|----------------------------------|
  D|------------------------1-4---------|----------------------------------|
  A|------1-2-4--4-1---2--2-----4-------|----------1-2-4----1-2-4-4--------|
  E|-2--2------------2------------------|-4b--2--2--------2----------4b-2-2|


  e|------------------------------------|----------------------------------|
  B|------------------------------------|----------------------------------|
  G|--------------------------0---------|----------------------------------|
  D|----------0--0----------2---0-------|----------0---------0-------------|
  A|------2-3------2---3--3-------------|------2-3-------2-3---------------|
  E|-3--3------------3-------------5b---|-3--3---------3--------5b--3--5b--| x3
comments
print report bad tab
1 comment total.
0 reply
alec.mcgrath.12 wrote on August 29 2014, 03:31 pm

Great tab! Sounds perfect!

I want to post or [tab]
guest
You may want to rate the tab now too:
select rating
Please do not post tabs as comments. Select "correction" instead!