Oops, an error
Loading. Please wait.

Rebel Rouser Tab

version 5
version 5

Interactive

4,813 views 1 this week
no commentswrite comment
1 2 3 4 5
excellent!
x 5
add to favorites
launch autoscroll
font size
0
reset
how to read this tab
guitar tuner
Autoscroll
slow
fast
+/-
esc
set tempo
stop
Help us to improve Ultimate-Guitar.com Take our survey!
×
Author
Difficulty
novice
e|------------------------------------|----------------------------------|
B|------------------------------------|----------------------------------|
G|------------------------------------|----------------------------------|
D|-------------------------------2----|----------------------------------|
A|-----------0-2--2-----0-0--0-4---2--|-----------0-2------0-2-2---------|
E|-2b-0--0-4--------4-0---------------|-2b-0--0-4------0-4--------2b-0---| x3
                                                                 
  

e|------------------------------------|----------------------------------|
B|------------------------------------|----------------------------------|
G|------------------------------------|----------------------------------|
D|------------------------------------|----------------------------------|
A|-----------------------------------------------------------------------|
E|-0-0-0-0-0-1-----------------------------------------------------------|

e|------------------------------------|----------------------------------|
B|------------------------------------|----------------------------------|
G|------------------------------------|----------------------------------|
D|------------------------------0-3---|----------------------------------|
A|----0-1-3--3-0---1--1-----1------3--|----------0-1-3----0-1-3-3--------|
E|--1------------1--------------------|---3b-1--1--------1-------3b1--11-|



e|------------------------------------|----------------------------------|
B|------------------------------------|----------------------------------|
G|--------------------------0---------|----------------------------------|
D|----------0--0----------2(5)0-------|----------0---------0-0-----------|
A|------2-3------2---3--3-------------|------2-3-------2-3---------------|
E|5b3--3------------3-------------5b-3|----3---------3--------5b--3------| x3
Suggest correction
comments
print report bad tab
guest
You may want to rate the tab now too:
select rating
Wanna post a correction for this tab? Suggest correction