Oops, an error
Loading. Please wait.

Rebel Rouser Tab

version 5
version 5

Whole song

Interactive

479 views 1 this week
no commentswrite comment
1 2 3 4 5
2 more votes to show rating
add to favorites
launch autoscroll
font size
0
reset
how to read this tab
guitar tuner
backing track
0:00
0:00
×
Best way to learn
"Rebel Rouser"
Autoscroll
slow
fast
+/-
esc
set tempo
stop
Author
Difficulty
  follow
intermediate
REBEL ROUSER

As recorded by Duane Eddy
(From the 1958 Album HAVE 'TWANGY' GUITAR WILL TRAVEL)

Music by Duane Eddy & Lee Hazlewood
Transcribed by Slowhand


Gtr I (E A D G B E) - 'Duane Eddy - Electric Guitar w/ amp tremolo & reverb'
Gtr II (E A D G B E) - 'Donnie Owens - Acoustic Guitar '
Gtr III (E A D G B E) - 'Gil Bernal - Saxophone'


  Q=106
  N.C.
 4/4
  Gtr I
  H    Q  a    +E  +E    H    +E  E E E   H.      E E
|----------------------|----------------|-------------|
|----------------------|----------------|-------------|
|----------------------|----------------|-------------|
|----------------------|----------------|-------------|
|----------------------|--------------0-|-2-----------|
|---------2b3==(2)r(2)-|-0----(0)-0-4---|---------4-0-|


  H    +E  E E E   H.      a   +E  E   H    +E  E E E   H    +E  E E E
|----------------|-------------------|----------------|----------------|
|----------------|-------------------|----------------|----------------|
|----------------|-------------------|----------------|----------------|
|--------------2-|-------------------|----------------|----------------|
|-0----(0)-0-4---|-2-----------------|--------------0-|-2----(2)-----0-|
|----------------|---------2b3-(2)-2-|-0----(0)-0-4---|----------0-4---|


                                              E
  Q  H    a   +E  E   H.      a    +E  +E     H           +E  E   E   E
|-------------------|----------------------||---------------------------|
|-------------------|----------------------||---------------------------|
|-------------------|----------------------||---------------------------|
|-------------------|----------------------||---------------------------|
|-2--2--------------|----------------------||-------------------------0-|
|---------2b3-(2)-2-|-0-------2b3==(2)r(2)-||-0-----------(0)-0---4-----|
|
| Gtr II
| W                   W                       E S S S S E  E  S S S S E
|-------------------|----------------------||-0-0-0-0-0-0--0--0-0-0-0-0-|
|-------------------|----------------------||-0-0-0-0-0-0--0--0-0-0-0-0-|
|-------------------|----------------------||-1-1-1-1-1-1--1--1-1-1-1-1-|
|-------------------|----------------------||-2-2-2-2-2-2--2--2-2-2-2-2-|
|-------------------|----------------------||-2-2-2-2-2-2--2--2-2-2-2-2-|
|-------------------|----------------------||-0-0-0-0-0-0--0--0-0-0-0-0-|


                              A7
  H           +E  E   E   E   Q     Q     +E  E   E   E
|---------------------------|---------------------------|
|---------------------------|---------------------------|
|---------------------------|---------------------------|
|---------------------------|-------------------------2-|
|-2-----------(2)-2---------|-0-----0-----(0)-0---4-----|
|---------------------4---0-|---------------------------|
|
| E S S S S E  E  S S S S E   E S S S S E  E  S S S S E
|-0-0-0-0-0-0--0--0-0-0-0-0-|-0-0-0-0-0-0--0--0-0-0-0-0-|
|-0-0-0-0-0-0--0--0-0-0-0-0-|-2-2-2-2-2-2--2--2-2-2-2-2-|
|-1-1-1-1-1-1--1--1-1-1-1-1-|-0-0-0-0-0-0--0--0-0-0-0-0-|
|-2-2-2-2-2-2--2--2-2-2-2-2-|-2-2-2-2-2-2--2--2-2-2-2-2-|
|-2-2-2-2-2-2--2--2-2-2-2-2-|-0-0-0-0-0-0--0--0-0-0-0-0-|
|-0-0-0-0-0-0--0--0-0-0-0-0-|---------------------------|


  E
  H.                 a   +E    E
|---------------------------------|
|---------------------------------|
|---------------------------------|
|---------------------------------|
|-2-------------------------------|
|--------------------2b3-(2)---2--|
|
| E  S S S S E E S S      S  S E
|-0--0-0-0-0-0-0-0-0------0--0-0--|
|-0--0-0-0-0-0-0-0-0------0--0-0--|
|-1--1-1-1-1-1-1-1-1------1--1-1--|
|-2--2-2-2-2-2-2-2-2------2--2-2--|
|-2--2-2-2-2-2-2-2-2------2--2-2--|
|-0--0-0-0-0-0-0-0-0------0--0-0--|


  H           +E  E   E   E   H           +E  E   E   E
|---------------------------|---------------------------|
|---------------------------|---------------------------|
|---------------------------|---------------------------|
|---------------------------|---------------------------|
|-------------------------0-|-2-----------(2)---------0-|
|-0-----------(0)-0---4-----|-----------------0---4-----|
|
| E S S S S E  E  S S S S E   E S S S S E  E  S S S S E
|-0-0-0-0-0-0--0--0-0-0-0-0-|-0-0-0-0-0-0--0--0-0-0-0-0-|
|-0-0-0-0-0-0--0--0-0-0-0-0-|-0-0-0-0-0-0--0--0-0-0-0-0-|
|-1-1-1-1-1-1--1--1-1-1-1-1-|-1-1-1-1-1-1--1--1-1-1-1-1-|
|-2-2-2-2-2-2--2--2-2-2-2-2-|-2-2-2-2-2-2--2--2-2-2-2-2-|
|-2-2-2-2-2-2--2--2-2-2-2-2-|-2-2-2-2-2-2--2--2-2-2-2-2-|
|-0-0-0-0-0-0--0--0-0-0-0-0-|-0-0-0-0-0-0--0--0-0-0-0-0-|


  B7
  H.                 a   +E    E
|---------------------------------|
|---------------------------------|
|---------------------------------|
|---------------------------------|
|-2-------------------------------|
|--------------------2b3-(2)---2--|
|
| E  S S S S E E S S      S  S E
|-2--2-2-2-2-2-2-2-2------2--2-2--|
|-0--0-0-0-0-0-0-0-0------0--0-0--|
|-2--2-2-2-2-2-2-2-2------2--2-2--|
|-1--1-1-1-1-1-1-1-1------1--1-1--|
|-2--2-2-2-2-2-2-2-2------2--2-2--|
|---------------------------------|


  E
  H.                 a   +E    E
|--------------------------------|
|--------------------------------|
|--------------------------------|
|--------------------------------|
|--------------------------------|
|-0------------------2b3-(2)---2-|
|
| E  S S S S E E S S      S  S E
|-0--0-0-0-0-0-0-0-0------0--0-0-|
|-0--0-0-0-0-0-0-0-0------0--0-0-|
|-1--1-1-1-1-1-1-1-1------1--1-1-|
|-2--2-2-2-2-2-2-2-2------2--2-2-|
|-2--2-2-2-2-2-2-2-2------2--2-2-|
|-0--0-0-0-0-0-0-0-0------0--0-0-|
|
| Gtr III
| W
|--------------------------------|
|--------------------------------|
|--------------------------------|
|--------------------------------|
|--------------------------------|
|--------------------------------|


  H           +E    E   E   E   H.                   E   E
|-----------------------------|-----------------------------|
|-----------------------------|-----------------------------|
|-----------------------------|-----------------------------|
|-----------------------------|-----------------------------|
|---------------------------0-|-2---------------------------|
|-0-----------(0)---0---4-----|----------------------4---0--|
|
| E S S S S E  E    S S S S E   E  S S S S E E   S S S S E
|-0-0-0-0-0-0--0----0-0-0-0-0-|-0--0-0-0-0-0-0---0-0-0-0-0--|
|-0-0-0-0-0-0--0----0-0-0-0-0-|-0--0-0-0-0-0-0---0-0-0-0-0--|
|-1-1-1-1-1-1--1----1-1-1-1-1-|-1--1-1-1-1-1-1---1-1-1-1-1--|
|-2-2-2-2-2-2--2----2-2-2-2-2-|-2--2-2-2-2-2-2---2-2-2-2-2--|
|-2-2-2-2-2-2--2----2-2-2-2-2-|-2--2-2-2-2-2-2---2-2-2-2-2--|
|-0-0-0-0-0-0--0----0-0-0-0-0-|-0--0-0-0-0-0-0---0-0-0-0-0--|
|
| E Q       E  S  S E   Q       E  Q       E S S E   Q
|-----------------------------|-----------------------------|
|---5----------5--------------|----5---------5--------------|
|-----------6-----------------|------------6----------------|
|-----------------------------|-----------------------------|
|-----------------------------|-----------------------------|
|-----------------------------|-----------------------------|


  A7
  H           +E    E   E   E
|-----------------------------|
|-----------------------------|
|-----------------------------|
|---------------------------2-|
|-0-----------(0)---0---4-----|
|-----------------------------|
|
| E S S S S E  E    S S S S E
|-0-0-0-0-0-0--0----0-0-0-0-0-|
|-2-2-2-2-2-2--2----2-2-2-2-2-|
|-0-0-0-0-0-0--0----0-0-0-0-0-|
|-2-2-2-2-2-2--2----2-2-2-2-2-|
|-0-0-0-0-0-0--0----0-0-0-0-0-|
|-----------------------------|
|
| E Q       E  S  S E   Q
|-----------------------------|
|---5----------5--------------|
|-----------6-----------------|
|-----------------------------|
|-----------------------------|
|-----------------------------|


  E
  H.                   a   +E    E   H           +E    E   E   E
|----------------------------------|-----------------------------|
|----------------------------------|-----------------------------|
|----------------------------------|-----------------------------|
|----------------------------------|-----------------------------|
|-2--------------------------------|---------------------------0-|
|----------------------2b3-(2)---2-|-0-----------(0)---0---4-----|
|
| E  S S S S E E   S S      S  S E   E S S S S E  E    S S S S E
|-0--0-0-0-0-0-0---0-0------0--0-0-|-0-0-0-0-0-0--0----0-0-0-0-0-|
|-0--0-0-0-0-0-0---0-0------0--0-0-|-0-0-0-0-0-0--0----0-0-0-0-0-|
|-1--1-1-1-1-1-1---1-1------1--1-1-|-1-1-1-1-1-1--1----1-1-1-1-1-|
|-2--2-2-2-2-2-2---2-2------2--2-2-|-2-2-2-2-2-2--2----2-2-2-2-2-|
|-2--2-2-2-2-2-2---2-2------2--2-2-|-2-2-2-2-2-2--2----2-2-2-2-2-|
|-0--0-0-0-0-0-0---0-0------0--0-0-|-0-0-0-0-0-0--0----0-0-0-0-0-|
|
| E  Q       E S S E        Q        E Q       E  S  S E   Q
|----------------------------------|-----------------------------|
|----5---------5-------------------|---5----------5--------------|
|------------6---------------------|-----------6-----------------|
|----------------------------------|-----------------------------|
|----------------------------------|-----------------------------|
|----------------------------------|-----------------------------|


  H           +E    E   E   E
|-----------------------------|
|-----------------------------|
|-----------------------------|
|-----------------------------|
|-2-----------(2)-----------0-|
|-------------------0---4-----|
|
| E S S S S E  E    S S S S E
|-0-0-0-0-0-0--0----0-0-0-0-0-|
|-0-0-0-0-0-0--0----0-0-0-0-0-|
|-1-1-1-1-1-1--1----1-1-1-1-1-|
|-2-2-2-2-2-2--2----2-2-2-2-2-|
|-2-2-2-2-2-2--2----2-2-2-2-2-|
|-0-0-0-0-0-0--0----0-0-0-0-0-|
|
| E Q       E  S  S E   Q
|-----------------------------|
|---5----------5--------------|
|-----------6-----------------|
|-----------------------------|
|-----------------------------|
|-----------------------------|


  B7                                E
  Q     H             a   +E    E   H.                   Q
|---------------------------------|----------------------------||
|---------------------------------|----------------------------||
|---------------------------------|----------------------------||
|---------------------------------|----------------------------||
|-2-----2-------------------------|----------------------------||
|---------------------2b3-(2)---2-|-0--------------------0-----||
|
| E S S S S E E   S S      S  S E   E  S S S S E E   S S S S E
|-2-2-2-2-2-2-2---2-2------2--2-2-|-0--0-0-0-0-0-0---0-0-0-0-0-||
|-0-0-0-0-0-0-0---0-0------0--0-0-|-0--0-0-0-0-0-0---0-0-0-0-0-||
|-2-2-2-2-2-2-2---2-2------2--2-2-|-1--1-1-1-1-1-1---1-1-1-1-1-||
|-1-1-1-1-1-1-1---1-1------1--1-1-|-2--2-2-2-2-2-2---2-2-2-2-2-||
|-2-2-2-2-2-2-2---2-2------2--2-2-|-2--2-2-2-2-2-2---2-2-2-2-2-||
|---------------------------------|-0--0-0-0-0-0-0---0-0-0-0-0-||
|
| E Q       E S S E        Q        E  Q       E S S E   Q
|---------------------------------|----------------------------||
|---5---------5-------------------|----5---------5-------------||
|-----------6---------------------|------------6---------------||
|---------------------------------|----------------------------||
|---------------------------------|----------------------------||
|---------------------------------|----------------------------||


  F
  H           +E    E   E   E
|-----------------------------|
|-----------------------------|
|-----------------------------|
|-----------------------------|
|-----------------------0---1-|
|-1-----------(1)---1---------|
|
| E S S S S E  E    S S S S E
|-1-1-1-1-1-1--1----1-1-1-1-1-|
|-1-1-1-1-1-1--1----1-1-1-1-1-|
|-2-2-2-2-2-2--2----2-2-2-2-2-|
|-3-3-3-3-3-3--3----3-3-3-3-3-|
|-3-3-3-3-3-3--3----3-3-3-3-3-|
|-1-1-1-1-1-1--1----1-1-1-1-1-|
|
| E Q       E  S  S E   Q
|---1----------1--------------|
|-----------3-----------------|
|-----------------------------|
|-----------------------------|
|-----------------------------|
|-----------------------------|


                                Bb7
  H           +E    E   E   E   H           +E    E   E   E
|-----------------------------|-----------------------------|
|-----------------------------|-----------------------------|
|-----------------------------|-----------------------------|
|-----------------------------|-----------------------0---3-|
|-3-----------(3)---3---0-----|-1-----------(1)---1---------|
|---------------------------1-|-----------------------------|
|
| E S S S S E  E    S S S S E   E S S S S E  E    S S S S E
|-1-1-1-1-1-1--1----1-1-1-1-1-|-1-1-1-1-1-1--1----1-1-1-1-1-|
|-1-1-1-1-1-1--1----1-1-1-1-1-|-3-3-3-3-3-3--3----3-3-3-3-3-|
|-2-2-2-2-2-2--2----2-2-2-2-2-|-1-1-1-1-1-1--1----1-1-1-1-1-|
|-3-3-3-3-3-3--3----3-3-3-3-3-|-3-3-3-3-3-3--3----3-3-3-3-3-|
|-3-3-3-3-3-3--3----3-3-3-3-3-|-1-1-1-1-1-1--1----1-1-1-1-1-|
|-1-1-1-1-1-1--1----1-1-1-1-1-|-----------------------------|
|
| E Q       E  S  S E   Q       E Q       E  S  S E   Q
|---1----------1--------------|---1----------1--------------|
|-----------3-----------------|-----------3-----------------|
|-----------------------------|-----------------------------|
|-----------------------------|-----------------------------|
|-----------------------------|-----------------------------|
|-----------------------------|-----------------------------|


  F
  H.                   a    +E    +E
|-------------------------------------|
|-------------------------------------|
|-------------------------------------|
|-------------------------------------|
|-3-----------------------------------|
|----------------------3b4==(3)r==(3)-|
|
| E  S S S S E E   S S       S  S  E
|-1--1-1-1-1-1-1---1-1-------1--1--1--|
|-1--1-1-1-1-1-1---1-1-------1--1--1--|
|-2--2-2-2-2-2-2---2-2-------2--2--2--|
|-3--3-3-3-3-3-3---3-3-------3--3--3--|
|-3--3-3-3-3-3-3---3-3-------3--3--3--|
|-1--1-1-1-1-1-1---1-1-------1--1--1--|
|
| E  Q       E S S E         Q
|----1---------1----------------------|
|------------3------------------------|
|-------------------------------------|
|-------------------------------------|
|-------------------------------------|
|-------------------------------------|


  H           +E    E   E   E   H           +E    E   E   E
|-----------------------------|-------------------------------|
|-----------------------------|-------------------------------|
|-----------------------------|-------------------------------|
|-----------------------------|-------------------------------|
|-----------------------0---1-|-3-----------(3)-------0---1---|
|-1-----------(1)---1---------|-------------------1-----------|
|
| E S S S S E  E    S S S S E   E S S S S E  E    S S S S E
|-1-1-1-1-1-1--1----1-1-1-1-1-|-1-1-1-1-1-1--1----1-1-1-1-1---|
|-1-1-1-1-1-1--1----1-1-1-1-1-|-1-1-1-1-1-1--1----1-1-1-1-1---|
|-2-2-2-2-2-2--2----2-2-2-2-2-|-2-2-2-2-2-2--2----2-2-2-2-2---|
|-3-3-3-3-3-3--3----3-3-3-3-3-|-3-3-3-3-3-3--3----3-3-3-3-3---|
|-3-3-3-3-3-3--3----3-3-3-3-3-|-3-3-3-3-3-3--3----3-3-3-3-3---|
|-1-1-1-1-1-1--1----1-1-1-1-1-|-1-1-1-1-1-1--1----1-1-1-1-1---|
|
| E Q       E  S  S E   Q       E Q       E  S  S E   Q
|---1----------1--------------|---1----------1----------------|
|-----------3-----------------|-----------3-------------------|
|-----------------------------|-------------------------------|
|-----------------------------|-------------------------------|
|-----------------------------|-------------------------------|
|-----------------------------|-------------------------------|


  C7
  Q     H             a    +E    +E
|------------------------------------|
|------------------------------------|
|------------------------------------|
|------------------------------------|
|-3-----3----------------------------|
|---------------------3b4==(3)r==(3)-|
|
| E S S S S E E   S S       S  S  E
|-0-0-0-0-0-0-0---0-0-------0--0--0--|
|-1-1-1-1-1-1-1---1-1-------1--1--1--|
|-3-3-3-3-3-3-3---3-3-------3--3--3--|
|-2-2-2-2-2-2-2---2-2-------2--2--2--|
|-3-3-3-3-3-3-3---3-3-------3--3--3--|
|------------------------------------|
|
| E Q       E S S E         Q
|---1---------1----------------------|
|-----------3------------------------|
|------------------------------------|
|------------------------------------|
|------------------------------------|
|------------------------------------|


  F                             F#
  H.                   Q        H           +E  E    E   E
|----------------------------||----------------------------|
|----------------------------||----------------------------|
|----------------------------||----------------------------|
|----------------------------||----------------------------|
|----------------------------||----------------------1---2-|
|-1--------------------1-----||-2-----------(2)-2----------|
|
| E  S S S S E E   S S S S E    E S S S S E  E  S  S S S E
|-1--1-1-1-1-1-1---1-1-1-1-1-||-2-2-2-2-2-2--2--2--2-2-2-2-|
|-1--1-1-1-1-1-1---1-1-1-1-1-||-2-2-2-2-2-2--2--2--2-2-2-2-|
|-2--2-2-2-2-2-2---2-2-2-2-2-||-3-3-3-3-3-3--3--3--3-3-3-3-|
|-3--3-3-3-3-3-3---3-3-3-3-3-||-4-4-4-4-4-4--4--4--4-4-4-4-|
|-3--3-3-3-3-3-3---3-3-3-3-3-||-4-4-4-4-4-4--4--4--4-4-4-4-|
|-1--1-1-1-1-1-1---1-1-1-1-1-||-2-2-2-2-2-2--2--2--2-2-2-2-|
|
| E  Q       E S S E   Q        Q     E   Q     Q.
|----1---------1-------------||----------------------------|
|------------3---------------||-7-----7---------7----------|
|----------------------------||----------------------------|
|----------------------------||----------------------------|
|----------------------------||----------------------------|
|----------------------------||----------------------------|


                              B7
  H           +E  E   E   E   H           +E  E   E   E
|---------------------------|---------------------------|
|---------------------------|---------------------------|
|---------------------------|---------------------------|
|---------------------------|---------------------1---4-|
|-4-----------(4)-4---1-----|-2-----------(2)-2---------|
|-------------------------2-|---------------------------|
|
| E S S S S E  E  S S S S E   E S S S S E  E  S S S S E
|-2-2-2-2-2-2--2--2-2-2-2-2-|-2-2-2-2-2-2--2--2-2-2-2-2-|
|-2-2-2-2-2-2--2--2-2-2-2-2-|-0-0-0-0-0-0--0--0-0-0-0-0-|
|-3-3-3-3-3-3--3--3-3-3-3-3-|-2-2-2-2-2-2--2--2-2-2-2-2-|
|-4-4-4-4-4-4--4--4-4-4-4-4-|-1-1-1-1-1-1--1--1-1-1-1-1-|
|-4-4-4-4-4-4--4--4-4-4-4-4-|-2-2-2-2-2-2--2--2-2-2-2-2-|
|-2-2-2-2-2-2--2--2-2-2-2-2-|---------------------------|
|
| Q     E   E  E  E   E   E   E E   Q      E  E   E   E
|---------------------------|-7-------------------------|
|-7-----7---------7---7---7-|---7-------------7---7---7-|
|---------------------------|---------------------------|
|---------------------------|---------------------------|
|---------------------------|---------------------------|
|---------------------------|---------------------------|


  F#
  H.                 a    +E    +E
|-----------------------------------|
|-----------------------------------|
|-----------------------------------|
|-----------------------------------|
|-4---------------------------------|
|--------------------4b5==(4)r==(4)-|
|
| E  S S S S E E S S       S  S  E
|-2--2-2-2-2-2-2-2-2-------2--2--2--|
|-2--2-2-2-2-2-2-2-2-------2--2--2--|
|-3--3-3-3-3-3-3-3-3-------3--3--3--|
|-4--4-4-4-4-4-4-4-4-------4--4--4--|
|-4--4-4-4-4-4-4-4-4-------4--4--4--|
|-2--2-2-2-2-2-2-2-2-------2--2--2--|
|
| E  E   E   E E E         E     E
|-9---------------------------------|
|----7---7-------7---------7-----7--|
|-----------------------------------|
|-----------------------------------|
|-----------------------------------|
|-----------------------------------|


  H           +E  E   E   E     H           +E    E     E     E
|-----------------------------|-----------------------------------|
|-----------------------------|-----------------------------------|
|-----------------------------|-----------------------------------|
|-----------------------------|-----------------------------------|
|---------------------1---2---|-4-----------(4)---------1-----2---|
|-2-----------(2)-2-----------|-------------------2---------------|
|
| E S S S S E  E  S S S S E     E S S S S E  E    S   S S S   E
|-2-2-2-2-2-2--2--2-2-2-2-2---|-2-2-2-2-2-2--2----2---2-2-2---2---|
|-2-2-2-2-2-2--2--2-2-2-2-2---|-2-2-2-2-2-2--2----2---2-2-2---2---|
|-3-3-3-3-3-3--3--3-3-3-3-3---|-3-3-3-3-3-3--3----3---3-3-3---3---|
|-4-4-4-4-4-4--4--4-4-4-4-4---|-4-4-4-4-4-4--4----4---4-4-4---4---|
|-4-4-4-4-4-4--4--4-4-4-4-4---|-4-4-4-4-4-4--4----4---4-4-4---4---|
|-2-2-2-2-2-2--2--2-2-2-2-2---|-2-2-2-2-2-2--2----2---2-2-2---2---|
|
|                                            |--3---|   |---3---|
| E E   E   E  E  E   E   S S   E E   E   E  E  E   E   E   E   E
|-7-----------------------6-7-|-6---------------------------5---7-|
|---7---7---------7---7-------|---7---7---------7---7---7---------|
|-----------------------------|-----------------------------------|
|-----------------------------|-----------------------------------|
|-----------------------------|-----------------------------------|
|-----------------------------|-----------------------------------|


  C#7
  H.                   a    +E    +E
|-------------------------------------|
|-------------------------------------|
|-------------------------------------|
|-------------------------------------|
|-4-----------------------------------|
|----------------------4b5==(4)r==(4)-|
|
| E  S S S S E E   S S       S  S  E
|-------------------------------------|
|-2--2-2-2-2-2-2---2-2-------2--2--2--|
|-4--4-4-4-4-4-4---4-4-------4--4--4--|
|-3--3-3-3-3-3-3---3-3-------3--3--3--|
|-4--4-4-4-4-4-4---4-4-------4--4--4--|
|-------------------------------------|
|
| H            S S E         E     E
|-9------------7-5-----------6-----7--|
|------------------7------------------|
|-------------------------------------|
|-------------------------------------|
|-------------------------------------|
|-------------------------------------|


  F#                             G
  H.                   Q         H           +E    E   E   E
|----------------------------||------------------------------|
|----------------------------||o-----------------------------|
|----------------------------||------------------------------|
|----------------------------||------------------------------|
|----------------------------||o-----------------------2---3-|
|-2--------------------2-----||--3-----------(3)---3---------|
|
| E  S S  S  S E E S S S S E     E S S S S E  E    S S S S E
|-2--2-2--2--2-2-2-2-2-2-2-2-||--3-3-3-3-3-3--3----3-3-3-3-3-|
|-2--2-2--2--2-2-2-2-2-2-2-2-||o-3-3-3-3-3-3--3----3-3-3-3-3-|
|-3--3-3--3--3-3-3-3-3-3-3-3-||--4-4-4-4-4-4--4----4-4-4-4-4-|
|-4--4-4--4--4-4-4-4-4-4-4-4-||--5-5-5-5-5-5--5----5-5-5-5-5-|
|-4--4-4--4--4-4-4-4-4-4-4-4-||o-5-5-5-5-5-5--5----5-5-5-5-5-|
|-2--2-2--2--2-2-2-2-2-2-2-2-||--3-3-3-3-3-3--3----3-3-3-3-3-|
|
| E  S S +S  S E E E   Q         E Q       E  S  S E   Q
|-6--------------------------||----3----------3--------------|
|----7-7-(7)-7---7-----------||o-----------5-----------------|
|--------------8-------------||------------------------------|
|----------------------------||------------------------------|
|----------------------------||o-----------------------------|
|----------------------------||------------------------------|


  H           +E    E   E   E
|------------------------------|
|------------------------------|
|------------------------------|
|------------------------------|
|-5-----------(5)---5---2------|
|---------------------------3--|
|
| E S S S S E  E    S S S S E
|-3-3-3-3-3-3--3----3-3-3-3-3--|
|-3-3-3-3-3-3--3----3-3-3-3-3--|
|-4-4-4-4-4-4--4----4-4-4-4-4--|
|-5-5-5-5-5-5--5----5-5-5-5-5--|
|-5-5-5-5-5-5--5----5-5-5-5-5--|
|-3-3-3-3-3-3--3----3-3-3-3-3--|
|
| E Q       E  S  S E   Q
|---3----------3---------------|
|-----------5------------------|
|------------------------------|
|------------------------------|
|------------------------------|
|------------------------------|


  C7                            G
  H           +E    E   E   E   H.                   a   +E    E
|-----------------------------|----------------------------------|
|-----------------------------|----------------------------------|
|-----------------------------|----------------------------------|
|-----------------------2---5-|----------------------------------|
|-3-----------(3)---3---------|-5--------------------------------|
|-----------------------------|----------------------5b6-(5)---5-|
|
| E S S S S E  E    S S S S E   E  S S S S E E   S S      S  S E
|-----------------------------|-3--3-3-3-3-3-3---3-3------3--3-3-|
|-1-1-1-1-1-1--1----1-1-1-1-1-|-3--3-3-3-3-3-3---3-3------3--3-3-|
|-3-3-3-3-3-3--3----3-3-3-3-3-|-4--4-4-4-4-4-4---4-4------4--4-4-|
|-2-2-2-2-2-2--2----2-2-2-2-2-|-5--5-5-5-5-5-5---5-5------5--5-5-|
|-3-3-3-3-3-3--3----3-3-3-3-3-|-5--5-5-5-5-5-5---5-5------5--5-5-|
|-----------------------------|-3--3-3-3-3-3-3---3-3------3--3-3-|
|
| E Q       E  S  S E   Q       E  Q       E S S E        Q
|---3----------3--------------|----3---------3-------------------|
|-----------5-----------------|------------5---------------------|
|-----------------------------|----------------------------------|
|-----------------------------|----------------------------------|
|-----------------------------|----------------------------------|
|-----------------------------|----------------------------------|


  H           +E    E   E   E
|-------------------------------|
|-------------------------------|
|-------------------------------|
|-------------------------------|
|-----------------------2---3---|
|-3-----------(3)---3-----------|
|
| E S S S S E  E    S S S S E
|-3-3-3-3-3-3--3----3-3-3-3-3---|
|-3-3-3-3-3-3--3----3-3-3-3-3---|
|-4-4-4-4-4-4--4----4-4-4-4-4---|
|-5-5-5-5-5-5--5----5-5-5-5-5---|
|-5-5-5-5-5-5--5----5-5-5-5-5---|
|-3-3-3-3-3-3--3----3-3-3-3-3---|
|
| E Q       E  S  S E   Q
|---3----------3----------------|
|-----------5-------------------|
|-------------------------------|
|-------------------------------|
|-------------------------------|
|-------------------------------|


                                D7
  H           +E    E   E   E   H.                   a    +E    +E
|-----------------------------|-------------------------------------|
|-----------------------------|-------------------------------------|
|-----------------------------|-------------------------------------|
|-----------------------------|-------------------------------------|
|-5-----------(5)-------2---3-|-5-----------------------------------|
|-------------------3---------|----------------------5b6==(5)r==(5)-|
|
| E S S S S E  E    S S S S E   E  S S S S E E   S S       S  S  E
|-3-3-3-3-3-3--3----3-3-3-3-3-|-------------------------------------|
|-3-3-3-3-3-3--3----3-3-3-3-3-|-3--3-3-3-3-3-3---3-3-------3--3--3--|
|-4-4-4-4-4-4--4----4-4-4-4-4-|-5--5-5-5-5-5-5---5-5-------5--5--5--|
|-5-5-5-5-5-5--5----5-5-5-5-5-|-4--4-4-4-4-4-4---4-4-------4--4--4--|
|-5-5-5-5-5-5--5----5-5-5-5-5-|-5--5-5-5-5-5-5---5-5-------5--5--5--|
|-3-3-3-3-3-3--3----3-3-3-3-3-|-------------------------------------|
|
| E Q       E  S  S E   Q       E  Q       E S S E         Q
|---3----------3--------------|----3---------3----------------------|
|-----------5-----------------|------------5------------------------|
|-----------------------------|-------------------------------------|
|-----------------------------|-------------------------------------|
|-----------------------------|-------------------------------------|
|-----------------------------|-------------------------------------|


  G
  H.                   a    +E    +E    3x
|---------------------------------------||
|--------------------------------------o||
|---------------------------------------||
|---------------------------------------||
|--------------------------------------o||
|-3--------------------5b6==(5)r==(5)---||
|
| E  S S S S E E   S S       S  S  E    3x
|-3--3-3-3-3-3-3---3-3-------3--3--3----||
|-3--3-3-3-3-3-3---3-3-------3--3--3---o||
|-4--4-4-4-4-4-4---4-4-------4--4--4----||
|-5--5-5-5-5-5-5---5-5-------5--5--5----||
|-5--5-5-5-5-5-5---5-5-------5--5--5---o||
|-3--3-3-3-3-3-3---3-3-------3--3--3----||
|
| E  Q       E S S E         Q          3x
|----3---------3------------------------||
|------------5-------------------------o||
|---------------------------------------||
|---------------------------------------||
|--------------------------------------o||
|---------------------------------------||


Duration Legend
---------------
W - whole; H - half; Q - quarter; E - 8th; S - 16th; T - 32nd; X - 64th; a - acciaccatura
+ - note tied to previous; . - note dotted; .. - note double dotted
Uncapitalized letters represent notes that are staccato (1/2 duration)
Irregular groupings are notated above the duration line
Duration letters will always appear directly above the note/fret number it represents the
duration for.  Duration letters with no fret number below them represent rests.  Multi-
bar rests are notated in the form Wxn, where n is the number of bars to rest for.  Low
melody durations appear below the staff

Tablature Legend
----------------
 h   - hammer-on
 p   - pull-off
 b   - bend
 pb  - pre-bend
 r   - bend release (if no number after the r, then release immediately)
 /\  - slide into or out of (from/to "nowhere")
 s   - legato slide
 S   - shift slide
  - natural harmonic
[n]  - artificial harmonic
n(n) - tapped harmonic
 ~   - vibrato
 tr  - trill
 T   - tap
 TP  - trem. picking
 PM  - palm muting
\n/  - tremolo bar dip; n = amount to dip
 \n  - tremolo bar down
 n/  - tremolo bar up
/n\  - tremolo bar inverted dip
 =   - hold bend; also acts as connecting device for hammers/pulls
 <>  - volume swell (louder/softer)
 x   - on rhythm slash represents muted slash
 o   - on rhythm slash represents single note slash

Misc Legend
-----------
 |  - bar
||  - double bar
||o - repeat start
o|| - repeat end
*|  - double bar (ending)
 :  - bar (freetime)
 $  - Segno
 &  - Coda
Tempo markers -  = BPM(8/16=s8/s16), where s8 = swing 8ths, s16 = swing 16ths
Suggest correction
Give kudos to tab author, rate the tab!
1 2 3 4 5
comments
print report bad tab
guest
You may want to rate the tab now too:
select rating
Wanna post a correction for this tab? Suggest correction