Oops, an error
Loading. Please wait.

My Freestyle Bass Tab

version 1
version 1

Whole song

Interactive

5,318 views 6 this week
no commentswrite comment
1 2 3 4 5
3 more votes to show rating
add to favorites
launch autoscroll
font size
0
reset
guitar tuner
Autoscroll
slow
fast
+/-
esc
set tempo
stop
Help us to improve Ultimate-Guitar.com Take our survey!
×
Author
Just a little part of the song, but this part sounds the best in this song^^

C:--------------|-------------------|
D:--------------|-------------------|
A:--------4--3--|--------1-3-4------|
E:--1--4--------|--1--4--------4----|

C:--------------|-------------------|
D:--------------|-------------------|
A:--------6--3--|--------1-3-4------|
E:--1--4--------|--1--4--------4----|
Suggest correction
Give kudos to tab author, rate the tab!
1 2 3 4 5
comments
print report bad tab
guest
You may want to rate the tab now too:
select rating
Wanna post a correction for this tab? Suggest correction