Oops, an error
Loading. Please wait.

Krivo Je More 2 tab

2,921 views 15 this week
no commentswrite comment
1 2 3 4 5
x 3
add to favorites
×
Save as Personal and add changes to this tab that will be seen only by you. Learn more ›
×
You can save this tab as Personal to edit and correct it or add notes. All changes will be seen only by you. Learn more »
launch autoscroll
font size
0
reset
how to read this tab
guitar tuner
edit
Autoscroll
slow
fast
+/-
esc
set tempo
stop
Author
Dubioza Kolektiv
KRIVO JE MORE 2


 D             Em      G             D
 Ti, ti si ga upoznala jedne ljetnje veceri
 D           Em         G         D
 On, on te poljubio dok more se pjenilo
 Bm           A       Bm               A
 I ti si se zaljubila mada nisi htjela to
 G         D
 Krivo je more.


Em               D
Na TV-u neki dan majmun u kravati
Em                    D
kaze da je nevin i da emotivno pati
Em                     D
Htjeli da ga sude i za privredni kriminal
G                        F#       F
terete ga da je pljack o carinski terminal


Em                   D
Samo malo u pritvoru bio ovaj cova
Em                    D
radi isti poso al jos uvijek fali lova
Em                     D
Jasno je da ovog funkcionerskoga smrada
G                     F#         F
za naseg zivota ovdje nece stici pravda

Em
Ovo ti je, brate, lose da ne moze gore
                      G        D
opet niko nije kriv - krivo je more   



Em                        D
Ispred zgrade sa parkinga klepili mi Forda
Em                       D
steta bas sam nas o kome dobro da ga prodam
Em                     D
Neko drugi sad ce moje auto da voza
G                      F#           F
dlanovi se znoje brate stigla me nervoza

Em                       D
Svoj sam slucaj prijavio u MUP kantona
Em                    D
zastarice slucaj vidi se iz aviona
Em                         D
Drot me gleda cudno k'o da prica s astronautom
G                        F#       F
samo  ladno kaze: "Pasa, kupi novi auto   "


Em
Ovo ti je, brate, lose da ne moze gore
                      G        D
opet niko nije kriv - krivo je more   


Em    D
O o o joooj
G        D
krivo je more
Em    D
O o o joooj
G F# F

Prelaz 2x

E||---------------------5--|--7-----7-----7--5--------|
B||---------------7--8-----|--------------------8--7--|
G||------------------------|--------------------------|
D||------------------------|--------------------------|
A||------------------------|--------------------------|
E||------------------------|--------------------------|


  E
--------------------------|--7-----7-----7--5--------|--------------------5--|
--8-----8-----8--7--5--7--|--------------------8--7--|--8-----------7--8-----|
--------------------------|--------------------------|-----------------------|
--------------------------|--------------------------|-----------------------|
--------------------------|--------------------------|-----------------------|
--------------------------|--------------------------|-----------------------|



--7-----7-----7--5--------|--------------------------|
--------------------8--7--|--8-----8-----8--7--5--7--|
--------------------------|--------------------------|
--------------------------|--------------------------|
--------------------------|--------------------------|
--------------------------|--------------------------|

--7-----7-----7--5--------|---------------------||
--------------------8--7--|--8--------7----5----||
--------------------------|---------------------||
--------------------------|---------------------||
--------------------------|---------------------||
--------------------------|---------------------||



Em               D
Cijeli grad je gled o kako diler gudru valja
Em               D
niko nije smio cinkat  heroinskog kralja
Em               D
Svi su znali kako levat dila losu robu
G                        F#       F
komsija se zezn o i zavrsio u grobu

Em                     D
Njega priveli su opet, nece lezati ni dan
Em                 D
ima skupe advokate pa ce odmah ici van
Em                    D
Sudija ga pusta da se brani sa slobode
G                      F#        F
dokaze da skloni i svjedoke da izbode

Em
Ovo ti je, brate, lose da ne moze gore
                      G        D
opet niko nije kriv - krivo je more   


Em    D
O o o joooj
G        D
krivo je more
Em    D
O o o joooj
G F# F


            
            
Suggest correction
Creating personal tab
Creating personal tab
You can edit any tab online and save it as your Personal.

You can edit, replace or remove any tab part or add personal notes – all changes will be seen only by you.

Personal tabs can be accessed anytime from any device, even offline.
Learn more »
Give kudos to tab author, rate the tab!
1 2 3 4 5
comments
print report bad tab
guest
You may want to rate the tab now too:
select rating
Wanna post a correction for this tab? Suggest correction