Oops, an error
Loading. Please wait.

Stars Bass Tab

10 views 10 this week
no commentswrite comment
1 2 3 4 5
3 more votes to show rating
add to favorites
launch autoscroll
font size
0
reset
guitar tuner
Autoscroll
slow
fast
+/-
esc
set tempo
stop
Help us to improve Ultimate-Guitar.com Take our survey!
×
Author
Difficulty
novice
[Intro]
G|--5--------|
D|-----6--5--|
A|-----------|
E|-----------|

G|---------------------------------------------------------------|
D|------------------------------------------------------6-8-6----|
A|--4--4--4-4-4-4-3-3-3-3-3-3-3-3--6--6--6-6-6-6-6-6-8--------8--|
E|---------------------------------------------------------------|

G|--------------------------------------------------5--------|
D|-----------------------------------------------3-----6--5--|
A|-----------------4--4--4-4-4-4--3--3--3-3-3-3--------------|
E|--6--6--6-6-6-6--------------------------------------------| x2

[Verse 1]
G|---------------------------------------------------------------|
D|------------------------------------------------------6-8-6----|
A|--4--4--4-4-4-4-3-3-3-3-3-3-3-3--6--6--6-6-6-6-6-6-8--------8--|
E|---------------------------------------------------------------|

G|--------------------------------------------------5--------|
D|-----------------------------------------------3-----6--5--|
A|-----------------4--4--4-4-4-4--3--3--3-3-3-3--------------|
E|--6--6--6-6-6-6--------------------------------------------| x2

[Pre-Chorus]
G|---------------------------------------------------------------|
D|------------------------------------------------------6-8-6----|
A|--4--4--4-4-4-4-3-3-3-3-3-3-3-3--6--6--6-6-6-6-6-6-8--------8--|
E|---------------------------------------------------------------|

G|--------------------------------------------------5--------|
D|-----------------------------------------------3-----6--5--|
A|-----------------4--4--4-4-4-4--3--3--3-3-3-3--------------|
E|--6--6--6-6-6-6--------------------------------------------| x2

[Chorus]
G|---------------------------------------------------------------|
D|------------------------------------------------------6-8-6----|
A|--4--4--4-4-4-4-3-3-3-3-3-3-3-3--6--6--6-6-6-6-6-6-8--------8--|
E|---------------------------------------------------------------|

G|--------------------------------------------------5--------|
D|-----------------------------------------------3-----6--5--|
A|-----------------4--4--4-4-4-4--3--3--3-3-3-3--------------|
E|--6--6--6-6-6-6--------------------------------------------| x2

[Verse 2]
G|---------------------------------------------------------------|
D|------------------------------------------------------6-8-6----|
A|--4--4--4-4-4-4-3-3-3-3-3-3-3-3--6--6--6-6-6-6-6-6-8--------8--|
E|---------------------------------------------------------------|

G|--------------------------------------------------5--------|
D|-----------------------------------------------3-----6--5--|
A|-----------------4--4--4-4-4-4--3--3--3-3-3-3--------------|
E|--6--6--6-6-6-6--------------------------------------------| x2

[Pre-Chorus]
G|---------------------------------------------------------------|
D|------------------------------------------------------6-8-6----|
A|--4--4--4-4-4-4-3-3-3-3-3-3-3-3--6--6--6-6-6-6-6-6-8--------8--|
E|---------------------------------------------------------------|

G|--------------------------------------------------5--------|
D|-----------------------------------------------3-----6--5--|
A|-----------------4--4--4-4-4-4--3--3--3-3-3-3--------------|
E|--6--6--6-6-6-6--------------------------------------------| x2

[Chorus]
G|---------------------------------------------------------------|
D|------------------------------------------------------6-8-6----|
A|--4--4--4-4-4-4-3-3-3-3-3-3-3-3--6--6--6-6-6-6-6-6-8--------8--|
E|---------------------------------------------------------------|

G|--------------------------------------------------5--------|
D|-----------------------------------------------3-----6--5--|
A|-----------------4--4--4-4-4-4--3--3--3-3-3-3--------------|
E|--6--6--6-6-6-6--------------------------------------------| x2

[Instrumental]
G|-----------------|
D|--3--3--3-3-3----|
A|--------------6--|
E|-----------------| x8

[Chorus]
G|---------------------------------------------------------------|
D|------------------------------------------------------6-8-6----|
A|--4--4--4-4-4-4-3-3-3-3-3-3-3-3--6--6--6-6-6-6-6-6-8--------8--|
E|---------------------------------------------------------------|

G|--------------------------------------------------5--------|
D|-----------------------------------------------3-----6--5--|
A|-----------------4--4--4-4-4-4--3--3--3-3-3-3--------------|
E|--6--6--6-6-6-6--------------------------------------------| x4

[Outro]
G|---------------------------------------------------------------|
D|------------------------------------------------------6-8-6----|
A|--4--4--4-4-4-4-3-3-3-3-3-3-3-3--6--6--6-6-6-6-6-6-8--------8--|
E|---------------------------------------------------------------|

G|--------------------------------------------------5--------|
D|-----------------------------------------------3-----6--5--|
A|-----------------4--4--4-4-4-4--3--3--3-3-3-3--------------|
E|--6--6--6-6-6-6--------------------------------------------| x2
Suggest correction
Give kudos to tab author, rate the tab!
1 2 3 4 5
comments
print report bad tab
guest
You may want to rate the tab now too:
select rating
Wanna post a correction for this tab? Suggest correction