Oops, an error
Loading. Please wait.

Headbanging In The Mirror chords

2,044 views 33 this week
3 commentsread comments
1 2 3 4 5
x 6
add to favorites
×
Save as Personal and add changes to this tab that will be seen only by you. Learn more ›
×
You can save this tab as Personal to edit and correct it or add notes. All changes will be seen only by you. Learn more »
launch autoscroll
font size
0
reset
transpose
0
reset
display chords
guitar tuner
edit
Autoscroll
slow
fast
+/-
esc
set tempo
stop
Strumming
There is no strumming pattern for this song yet. and get +5 IQ
Headbanging in the Mirror by Ducktails

Intro: Am  Em  Bm  Bm  (x4) 

Verse: 

Bm          Am      C       
Headbanging In The Mirror

Bm               Am       C
Wish I could see so much clearer

Bm                    Am       C
Just let me come down from the speeding

Bm          Am     C 
Afternoon interior dream


Lift:

D            C       D       Am 
In my late twenties after two am

D             C      D             Am
Born in New Jersey, I traveled the highways

D            C       D              Am 
Working nine to five, I won't play that game

D                 C     D            Am 
When you caught my eye, I wasn't the same 

Verse: 

Bm          Am      C       
Now we're Headbanging In The Mirror

Bm               Am       C
Now I can see so much clearer

Bm                    Am       C
Just let me come down from the speeding

Bm          Am     C 
Afternoon interior dream


Bridge: Am  Em  Bm  Bm  (x4)


Verse: 

Bm          Am      C       
Headbanging In The Mirror

Bm               Am       C
Now I can see so much clearer

Bm                    Am       C
Just let me come down from the speeding

Bm          Am     C 
Afternoon interior dream


Bm          Am      C       
Headbanging In The Mirror

Bm               Am       C
And I can see so much clearer

Bm                    Am       C
Never let me come down from this

Bm          Am     C 
Afternoon interior dream


Outro: Am  Em  Bm  Bm  (x12)

            
            
Suggest correction
Creating personal tab
Creating personal tab
You can edit any tab online and save it as your Personal.

You can edit, replace or remove any tab part or add personal notes – all changes will be seen only by you.

Personal tabs can be accessed anytime from any device, even offline.
Learn more »
comments
print report bad tab
3 comments total.
0 reply
givicencio 364 Dec 16, 2015 04:44 PM

There's this little riff also

-----------------------------
-----------------------------
-----------7-9---------------
-----10-9------9-7-9-9-7-----
--10---------------------10--
-----------------------------


(...or something like that)

0 reply
massparody 10 Feb 18, 2017 07:48 PM

This is severely inaccurate.

+1 reply
WiseGuy314 62 Jul 03, 2017 02:01 AM

The Intro:

-----------------0-----------
----1---0---0-3----0-----0---
--0---0---0----------0-2---0-
2----------------------------
-----------------------------
-----------------------------

-----------------0-----------
----1---0---0-3---------0---
--0---0---0--------0-2----0--
2----------------------------
-----------------------------
-----------------------------

-----------------0-----------
----1---0---0-3----0-----0---
--0---0---0----------0-2---0-
2----------------------------
-----------------------------
-----------------------------

-----------------0-----------
----1---0---0-3----------0---
--0---0---0--------0-2-------
2----------------------------
-----------------------------
-----------------------------

guest
You may want to rate the tab now too:
select rating
Wanna post a correction for this tab? Suggest correction