Oops, an error
Loading. Please wait.

Potential Futures Bass Tab

166 views 1 this week
no commentswrite comment
1 2 3 4 5
please rate
add to favorites
launch autoscroll
font size
0
reset
guitar tuner
Autoscroll
slow
fast
+/-
esc
set tempo
stop
Help us to improve Ultimate-Guitar.com Take our survey!
×
Debut single from DUELS, released in July on Transgressive Records

----------------------------------------------------------------------------
			     POTENTIAL FUTURES - DUELS
----------------------------------------------------------------------------

Tabbed By : Don Feely

Tuning: E-A-D-G

INTRO
clean
G|-------------------------------------------------------------------------|
D|-------------------------------------------------------------------------|
A|--------------------------------------------------------------14---------|
E|10-10-10-10---10-10-10-10---15-15-15-15---15-15-15-15-15-14-12-0---------|
w/dist
G|-------------------------------------------------------------------------|
D|-------------------------------------------------------------------------|
A|-------------------------------------------------------------------------|
E|10-10-10-10-10-10-10-10-10-10-10-10-10-10-5-3-3-3-3-3-3-3-3-3-3-3-3-3-3-3|

VERSE
clean
G|-------------------------------------------------------------------------|
D|-----12-12--12----12-12--12----------------------------------------------|
A|----------10-----------10---------------10-8-7-----10-8-7-0--------------|
E|-------------------------------10-9-8-8--------8-8-----------------------|

G|-------------------------------------------------------------------------|
D|-------------------------------------------------------------------------|
A|--8-8----8-8----8-8----8-8----10-10-----10-10---12-12----0-12-0-12-------|
E|-----10-8----------10-8------------12-10---------------------------------|

BRIDGE
w/dist
G|-------------------------------------------------------------------------|
D|------11-10---------------11-10------------------------------------------|
A|12-13-------10-8----11-13-------10-8--0-8-7-6-6-6-6-6-6-6-8-8-8-8-8-8-8-8|
E|----------------------------------------------------------6-6-6-6-6-6-6-6|

CHORUS
clean
G|-------------------------------------------------------------------------|
D|-------------------------------------------------------------------------|
A|-------------------------------------------------------------------17-17-|
E|--10-10-10-10-10-10-10-10-15-15-15-15-15-15-15-15-17-17-17-17-17-17------|

G|-------------------------------------------------------------------------|
D|-------------------------------------------------------------------------|
A|--14-14-14-14------------------------------------------------------------|
E|-------------15-15-15-15-14-12-0-----------------------------------------|
w/dist
G|-------------------------------------------------------------------------|
D|-------------------------------------------------------------------------|
A|-------------------------------------------------------------------------|
E|10-10-10-10-10-10-10-10-10-10-10-10-10-10-5-3-3-3-3-3-3-3-3-3-3-3-3-3-3-3|

MIDDLE 8
clean
G|--------------------------11---------------------------------------------|
D|-------------------------------------------------------------------------|
A|--9--10---9---0-3-2-0--2/9---9-10--9-9--9-------10-10--10----------------|
E|---------------------3-------------------8-8--8-----------6-6-6-6-6-6-6-6|

============================================================================
Suggest correction
Give kudos to tab author, rate the tab!
1 2 3 4 5
comments
print report bad tab
guest
You may want to rate the tab now too:
select rating
Wanna post a correction for this tab? Suggest correction