Oops, an error
Loading. Please wait.

Delayed Devotion bass

version 1
version 1

Whole song

Interactive

by Duffy
4 views 1 this week
no commentswrite comment
1 2 3 4 5
3 more votes to show rating
add to favorites
×
Save as Personal and add changes to this tab that will be seen only by you. Learn more ›
×
You can save this tab as Personal to edit and correct it or add notes. All changes will be seen only by you. Learn more »
launch autoscroll
font size
0
reset
guitar tuner
edit
Autoscroll
slow
fast
+/-
esc
set tempo
stop
Artist: Duffy 
Song: Delayed Devotion
Tuning - Standard
Time - 4/4
tabbed by electricbunny

[Verse]                                                             
G|--------------------------------|------------------------0-------|
D|0-----------1-1-1---1---1-------|--------------------------------|
A|--------------------------------|--------------------------------|
E|----------------------------4---|1-----------1---3---3-----------|
 
G|--------------------------------|------------------------5-------|
D|--------------------------------|--------------------5-------5---|
A|------------1-------1-------1---|----------------3---------------|
E|4-------------------------------|----6-------6-------------------|
 
G|--------0-----------------------|----------------0---0-------0---|
D|3-----------1-------1-------3---|----3-------3-----------1-------|
A|--------------------------------|--------------------------------|
E|--------------------------------|--------------------------------|
 
[Pre-Chorus]                                                        
G|1---1---------------------------|--------3-----------------------|
D|--------------------------------|----3---------------------------|
A|------------1-------1-------1---|1-------------------------------|
E|--------------------------------|----------------1-----------1---|
 
G|--------------------------------|--------0-----------------------|
D|--------------------------------|----------------3---------------|
A|--------------------------------|----3-----------------------3---|
E|1-----------1-------------------|3-------------------------------|
 
G|--------------------------------|--------------------------------|
D|3-------3-----------------------|--------------------------------|
A|----3---------------------------|------------1-2-3-----------3---|
E|------------1---------------1---|3---3---------------------------|
 
G|--------------------------------|--------------------------------|
D|--------------------------------|----------------------------1---|
A|3-----------3-------------------|3---3-3---------1---------------|
E|------------------------------3-|--------3-----------------------|
 
                                  [Chorus]                          
G|--------3-------3---------------|--------------------------------|
D|----3-------3-------------------|--------------------------------|
A|--------------------------------|----------------------------3---|
E|--------------------------------|----------------1---------------|
 
G|--------------------------------|--------------------------------|
D|--------------------------------|--------------------------------|
A|----------------------------1---|--------1---3-------------------|
E|--------1---3---4---------------|------1---------1-------1-------|
 
G|--------------------------------|--------------------------------|
D|0---0-------1-----------1-------|--------------------------------|
A|----------------------1---------|------------3-------------------|
E|--------------------1-----------|1---------------------------1-3-|
 
G|--------------------------------|--------------------------------|
D|--------------------------------|----------------0---0-------1---|
A|------------1-----------1---3---|--------------------------------|
E|4---------------------1---------|1-------1-----1-----------------|
 
G|----3---------------------------|--------------------------------|
D|--------1---2---3---------------|--------------------------------|
A|----------------------------3---|----------------------------1---|
E|--------------------------------|----------------4---------------|
 
G|----------------1-----------1---|1-------------------------------|
D|--------------------------------|--------------------1-----------|
A|--------1---3-------------------|--------------------------------|
E|------1-------------------------|------------4-------------------|
 
[Verse]                                                             
G|--------------------------------|--------------------------------|
D|--------------------------------|----------------0-----------1-1-|
A|--------------------------------|--------------------------------|
E|--------------------------------|--------------------------------|
 
G|--------------------------------|--------0-----------------------|
D|1---1---1-----------------------|--------------------------------|
A|--------------------------------|----------------------------1---|
E|------------4---1-----------1---|3---3-----------4---------------|
 
G|--------------------------------|--------5-----------------------|
D|--------------------------------|----5-------5---3---------------|
A|----1-------1-------1-------1---|3---------------------------6---|
E|--------------------------------|--------------------------------|
 
G|--------------------------------|0---0---0---1---1---1-----------|
D|1---1---1---3---3---3---3---3---|--------------------------------|
A|--------------------------------|----------------------------1---|
E|--------------------------------|--------------------------------|
 
G|------------------------3-------|--------------------------------|
D|--------------------3-----------|--------------------------------|
A|----1-------1---1---------------|--------------------------------|
E|--------------------------------|1-----------1---1-----------1---|
 
G|------------------------0-------|--------------------------------|
D|--------------------------------|3---------------3-------3-------|
A|--------------------3-----------|------------3-------3-----------|
E|----------------3---------------|----------------------------1---|
 
G|--------------------------------|--------------------------------|
D|--------3-----------------------|--------------------------------|
A|----------------------------2---|3-----------3---3-----------3---|
E|------------1---3---3-----------|--------------------------------|
 
G|------------5-------------------|------------------------3-------|
D|--------------------------------|--------------------3-------3---|
A|--------------------3-----------|1-----------3-------------------|
E|------------------------3-------|--------------------------------|
 
                                  [Chorus]                          
G|3-------------------------------|--------------------------------|
D|--------------------------------|--------------------------------|
A|--------------------------------|------------3-------------------|
E|--------------------------------|1-----------------------1---3---|
 
G|--------------------------------|--------------------------------|
D|--------------------------------|----------------0---0-------1---|
A|------------1-----------1---3---|--------------------------------|
E|4---------------------1---------|1-------1-----1-----------------|
 
G|--------------------------------|--------------------------------|
D|----1---1-----------------------|--------------------------------|
A|------1---------------------3---|----------------------------1---|
E|----------------1---------------|--------1---1-3-4---------------|
 
G|--------------------------------|--------------------3-----------|
D|--------------------------------|0---0-------1-----------1---2---|
A|--------1---3-------------------|--------------------------------|
E|------1---------1-------1-------|--------------------------------|
 
G|--------------------------------|--------------------------------|
D|3-------------------------------|--------------------------------|
A|------------3-------------------|------------1-----------1---3---|
E|----------------------------1-3-|4---------------------1---------|
 
                                  [Bridge] 
G|--------------------------------|--------------------------------|
D|--------------------------------|----1---------------------------|
A|--------------------------------|--------------------------------|
E|----------------------------4---|--------------------------------|
 
G|--------------------------------|--------------------------------|
D|--------------------------------|--------------------------------|
A|--------------------------------|--------------------------------|
E|1-----------0---1-----------1---|1-----------1---4---1---3-------|
 
G|--------------------------------|--------------------------------|
D|----------------3---------------|--------------------------------|
A|------------3-------3-----------|--------------------------------|
E|1---------------------------1---|----------------3---3---3-------|
 
G|--------------------------------|------------5---5---5-----------|
D|--------------------------------|--------------------------------|
A|3---------------3---3-------3---|------------------------3-------|
E|--------------------------------|--------------------------------|
 
G|--------------------------------|--------------------------------|
D|--------------------3-----------|--------------------------------|
A|1---------------------------1---|--------------------------------|
E|--------------------------------|--------------------------------|
 
                                  [Chorus]                          
G|--------------------------------|--------------------------------|
D|--------------------------------|--------------------------------|
A|--------------------------------|------------3-------------------|
E|--------------------------------|1-----------------------1---3---|
 
G|--------------------------------|--------------------------------|
D|--------------------------------|----------------0---0-------1---|
A|------------1-----------1---3---|--------------------------------|
E|4---------------------1---------|1-------1-----1-----------------|
 
G|--------------------------------|--------------------------------|
D|----1---1-----------------------|--------------------------------|
A|------1---------------------3---|----------------------------1---|
E|----------------1---------------|--------1---1-3-4---------------|
 
G|--------------------------------|--------------------3-----------|
D|--------------------------------|0---0-------1-----------1---2---|
A|--------1---3-------------------|--------------------------------|
E|------1---------1-------1-------|--------------------------------|
 
G|--------------------------------|--------------------------------|
D|3-------------------------------|--------------------------------|
A|------------3-------------------|------------1-----------1---3---|
E|----------------------------1-3-|4---------------------1---------|
 
G|1-----------1---1---------------|--------------------------------|
D|--------------------------------|----1---------------------------|
A|--------------------------------|--------------------------------|
E|----------------------------4---|--------------------------------|
Suggest correction
Creating personal tab
Creating personal tab
You can edit any tab online and save it as your Personal.

You can edit, replace or remove any tab part or add personal notes – all changes will be seen only by you.

Personal tabs can be accessed anytime from any device, even offline.
Learn more »
Give kudos to tab author, rate the tab!
1 2 3 4 5
comments
print report bad tab
guest
You may want to rate the tab now too:
select rating
Wanna post a correction for this tab? Suggest correction