Oops, an error
Loading. Please wait.

Mercy tab

version 1
version 1

Whole song

  • The chords for this song are very obvious. I find ... Show more

Interactive

by Duffy
373 views 6 this week
no commentswrite comment
1 2 3 4 5
1 last vote to show rating
add to favorites
×
Save as Personal and add changes to this tab that will be seen only by you. Learn more ›
×
You can save this tab as Personal to edit and correct it or add notes. All changes will be seen only by you. Learn more »
launch autoscroll
font size
0
reset
how to read this tab
guitar tuner
edit
Autoscroll
slow
fast
+/-
esc
set tempo
stop
Author
Difficulty
About this tab version
The chords for this song are very obvious. I find playing the Bar Chords allows for subtle changes that blend well with the sing and Bass beats. Timing is tricky but, establish a good "scat" with the drum and bass. Was this info helpful? Yes No
[Intro]
       ^  ^  v  ^  v  v  ^       ^  ^  v  ^  v  v  ^
e|-----3--3--3--3--3--3--3---|---3--3--3--3--3--3--3-----|
B|-----3--3--3--3--3--3--3---|---3--3--3--3--3--3--3-----|
G|-----4--4--4--4--4--4--4---|---4--4--4--4--4--4--4-----|
D|-----5--5--5--5-----5------|---5--5--5--5-----5--------|
A|-----5---------------------|---5-----------------------|
E|-----3---------------------|---3-----------------------|
       Yeah,  Yeah,  Yeah,       Yeah,  Yeah,  Yeah,

       ^  ^  v  ^  v  v  ^       ^  ^  v  ^  v  v  ^
e|-----3--3--3--3--3--3--3---|---3--3--3--3--3--3--3-----|
B|-----3--3--3--3--3--3--3---|---3--3--3--3--3--3--3-----|
G|-----4--4--4--4--4--4--4---|---4--4--4--4--4--4--4-----|
D|-----5--5--5--5-----5------|---5--5--5--5-----5--------|
A|-----5---------------------|---5-----------------------|
E|-----3---------------------|---3-----------------------|
       Yeah,  Yeah,  Yeah,       Yeah,  Yeah,  Yeah,

       ^  ^  v  ^  v  v  ^       ^  ^  v  ^  v  v  ^
e|-----3--3--3--3--3--3--3---|---3--3--3--3--3--3--3-----|
B|-----3--3--3--3--3--3--3---|---3--3--3--3--3--3--3-----|
G|-----4--4--4--4--4--4--4---|---4--4--4--4--4--4--4-----|
D|-----5--5--5--5-----5------|---5--5--5--5-----5--------|
A|-----5---------------------|---5-----------------------|
E|-----3---------------------|---3-----------------------|
       Yeah,  Yeah,  Yeah,       Yeah,  Yeah,  Yeah,

       ^  ^  v  ^  v  v  ^       ^  ^  v  ^  v  v  ^
e|-----3--3--3--3--3--3--3---|---3--3--3--3--3--3--3-----|
B|-----3--3--3--3--3--3--3---|---3--3--3--3--3--3--3-----|
G|-----4--4--4--4--4--4--4---|---4--4--4--4--4--4--4-----|
D|-----5--5--5--5-----5------|---5--5--5--5-----5--------|
A|-----5---------------------|---5-----------------------|
E|-----3---------------------|---3-----------------------|
       Yeah,  Yeah,  Yeah,       Yeah,  Yeah,  Yeah,

[Verse 1]
       ^  ^  v  ^  v  v  ^       ^  ^  v  ^  v  v  ^
e|-----3--3--3--3--3--3--3---|---3--3--3--3--3--3--3-----|
B|-----3--3--3--3--3--3--3---|---3--3--3--3--3--3--3-----|
G|-----4--4--4--4--4--4--4---|---4--4--4--4--4--4--4-----|
D|-----5--5--5--5-----5------|---5--5--5--5-----5--------|
A|-----5---------------------|---5-----------------------|
E|-----3---------------------|---3-----------------------|
       I   love   you          but, I gotta stay true

       ^  ^  v  ^  v  v  ^       ^  ^  v  ^  v  v  ^
e|-----3--3--3--3--3--3--3---|---3--3--3--3--3--3--3-----|
B|-----3--3--3--3--3--3--3---|---3--3--3--3--3--3--3-----|
G|-----4--4--4--4--4--4--4---|---4--4--4--4--4--4--4-----|
D|-----5--5--5--5-----5------|---5--5--5--5-----5--------|
A|-----5---------------------|---5-----------------------|
E|-----3---------------------|---3-----------------------|
 My morals got me on my knees  I'm beggin please, stop playing games

       ^  ^  v  ^  v  v  ^       ^  ^  v  ^  v  v  ^
e|-----3--3--3--3--3--3--0---|---0--0--0--0--0--0--0-----|
B|-----3--3--3--3--3--3--5---|---5--5--5--5--5--5--5-----|
G|-----4--4--4--4--4--4--5---|---5--5--5--5--5--5--5-----|
D|-----5--5--5--5-----5--5---|---5--5--5--5--5--5--5-----|
A|-----5-----------------3---|---3--3--3--3--3--3--3-----|
E|-----3---------------------|---------------------------|
   I don't know what this is     cause you got me good

       ^  ^  v  ^  v  v  ^       ^  ^  v  ^  v  v  ^
e|-----0--0--0--0--0--0--0---|---3--3--3--3--3--3--3-----|
B|-----5--5--5--5--5--5--5---|---3--3--3--3--3--3--3-----|
G|-----5--5--5--5--5--5--5---|---4--4--4--4--4--4--4-----|
D|-----5--5--5--5--5--5--5---|---5--5--5--5-----5--------|
A|-----3-----------------3---|---5-----------------------|
E|---------------------------|---3-----------------------|
     Just like you knew you      would

       ^  ^  v  ^  v  v  ^       ^  ^  v  ^  v  v  ^
e|-----3--3--3--3--3--3--0---|---0--0--0--0--0--0--0-----|
B|-----3--3--3--3--3--3--5---|---5--5--5--5--5--5--5-----|
G|-----4--4--4--4--4--4--5---|---5--5--5--5--5--5--5-----|
D|-----5--5--5--5-----5--5---|---5--5--5--5--5--5--5-----|
A|-----5-----------------3---|---3--3--3--3--3--3--3-----|
E|-----3---------------------|---------------------------|
   I don't know what you do      but you do it well

       ^  ^  v  ^  v  v  ^       ^  ^  v  ^  v  v  ^
e|-----0--0--0--0--0--0--0---|---3--3--3--3--3--3--3-----|
B|-----5--5--5--5--5--5--5---|---3--3--3--3--3--3--3-----|
G|-----5--5--5--5--5--5--5---|---4--4--4--4--4--4--4-----|
D|-----5--5--5--5--5--5--5---|---5--5--5--5-----5--------|
A|-----3-----------------3---|---5-----------------------|
E|---------------------------|---3-----------------------|
       I'm   under your          spell

[Chorus]
       ^  ^  v  ^  v  v  ^        ^  ^  v  ^  v  v  ^
e|-----3--3--3--3--3--3--3----|---3--3--3--3--3--3--3-----|
B|-----3--3--3--3--3--3--3----|---3--3--3--3--3--3--3-----|
G|-----4--4--4--4--4--4--4----|---4--4--4--4--4--4--4-----|
D|-----5--5--5--5-----5-------|---5--5--5--5-----5--------|
A|-----5----------------------|---5-----------------------|
E|-----3----------------------|---3-----------------------|
  You got me beggin you for mercy,  Why won't you release me

       ^  ^  v  ^  v  v  ^       ^  ^  v  ^  v  v  ^
e|-----3--3--3--3--3--3--3---|---3--3--3--3--3--3--3-----|
B|-----3--3--3--3--3--3--3---|---5--5--5--5--5--5--5-----|
G|-----4--4--4--4--4--4--4---|---5--5--5--5--5--5--5-----|
D|-----5--5--5--5-----5--5---|---5--5--5--5--5--5--5-----|
A|-----5-----------------5---|---3--3--3--3--3--3--3-----|
E|-----3-----------------3---|---------------------------|
  You got me beggin you for      mercy,

       ^  ^  v  ^  v  v  ^       ^  ^  v  ^  v  v  ^
e|-----3--3--3--3--3--3--3---|---3--3--3--3--3--3--3-----|
B|-----5--5--5--5--5--5--5---|---3--3--3--3--3--3--3-----|
G|-----5--5--5--5--5--5--5---|---4--4--4--4--4--4--4-----|
D|-----5--5--5--5--5--5--5---|---5--5--5--5-----5--------|
A|-----3-----------------3---|---5-----------------------|
E|---------------------------|---3-----------------------|
       why don't you             release me

       ^  ^  v  ^    ^  ^  v  ^  v      ^  ^  v  ^  v 
e|-----3--3--3--3----5--5--5--5--5--|---3--3--3--3--3----|
B|-----3--3--3--3----7--7--7--7--7--|---5--5--5--5--5----|
G|-----4--4--4--4----7--7--7--7--7--|---5--5--5--5--5----|
D|-----5--5--5--5----7--7--7--7--7--|---5--5--5--5--5----|
A|-----5-------------5--5--5--------|---3--3--3----------|
E|-----3----------------------------|--------------------|
       I said        Release -----------------------

       ^  ^  v  ^  v  v  ^     
e|-----3--3--3--3--3--3--3---|
B|-----3--3--3--3--3--3--3---|
G|-----4--4--4--4--4--4--4---|
D|-----5--5--5--5-----5--5---|
A|-----5-----------------5---|
E|-----3-----------------3---|
       me

[Verse 2]
       ^  ^  v  ^  v  v  ^       ^  ^  v  ^  v  v  ^
e|-----3--3--3--3--3--3--3---|---3--3--3--3--3--3--3-----|
B|-----3--3--3--3--3--3--3---|---3--3--3--3--3--3--3-----|
G|-----4--4--4--4--4--4--4---|---4--4--4--4--4--4--4-----|
D|-----5--5--5--5-----5------|---5--5--5--5-----5--------|
A|-----5---------------------|---5-----------------------|
E|-----3---------------------|---3-----------------------|
      Now you think that I     will be something on the side

       ^  ^  v  ^  v  v  ^       ^  ^  v  ^  v  v  ^
e|-----3--3--3--3--3--3--3---|---3--3--3--3--3--3--3-----|
B|-----3--3--3--3--3--3--3---|---3--3--3--3--3--3--3-----|
G|-----4--4--4--4--4--4--4---|---4--4--4--4--4--4--4-----|
D|-----5--5--5--5-----5------|---5--5--5--5-----5--------|
A|-----5---------------------|---5-----------------------|
E|-----3---------------------|---3-----------------------|
but you got to understand that I need a man who can take my hand (yes I do)

       ^  ^  v  ^  v  v  ^       ^  ^  v  ^  v  v  ^
e|-----3--3--3--3--3--3--0---|---0--0--0--0--0--0--0-----|
B|-----3--3--3--3--3--3--5---|---5--5--5--5--5--5--5-----|
G|-----4--4--4--4--4--4--5---|---5--5--5--5--5--5--5-----|
D|-----5--5--5--5-----5--5---|---5--5--5--5--5--5--5-----|
A|-----5-----------------3---|---3--3--3--3--3--3--3-----|
E|-----3---------------------|---------------------------|
   I don't know what this is     but you got me good

       ^  ^  v  ^  v  v  ^       ^  ^  v  ^  v  v  ^
e|-----0--0--0--0--0--0--0---|---3--3--3--3--3--3--3-----|
B|-----5--5--5--5--5--5--5---|---3--3--3--3--3--3--3-----|
G|-----5--5--5--5--5--5--5---|---4--4--4--4--4--4--4-----|
D|-----5--5--5--5--5--5--5---|---5--5--5--5-----5--------|
A|-----3-----------------3---|---5-----------------------|
E|---------------------------|---3-----------------------|
     Just like you knew you      would

       ^  ^  v  ^  v  v  ^       ^  ^  v  ^  v  v  ^
e|-----3--3--3--3--3--3--0---|---0--0--0--0--0--0--0-----|
B|-----3--3--3--3--3--3--5---|---5--5--5--5--5--5--5-----|
G|-----4--4--4--4--4--4--5---|---5--5--5--5--5--5--5-----|
D|-----5--5--5--5-----5--5---|---5--5--5--5--5--5--5-----|
A|-----5-----------------3---|---3--3--3--3--3--3--3-----|
E|-----3---------------------|---------------------------|
   I don't know what you do      but you do it well

       ^  ^  v  ^  v  v  ^       ^  ^  v  ^  v  v  ^
e|-----0--0--0--0--0--0--0---|---3--3--3--3--3--3--3-----|
B|-----5--5--5--5--5--5--5---|---3--3--3--3--3--3--3-----|
G|-----5--5--5--5--5--5--5---|---4--4--4--4--4--4--4-----|
D|-----5--5--5--5--5--5--5---|---5--5--5--5-----5--------|
A|-----3-----------------3---|---5-----------------------|
E|---------------------------|---3-----------------------|
       I'm   under your          spell

[Chorus]
       ^  ^  v  ^  v  v  ^        ^  ^  v  ^  v  v  ^
e|-----3--3--3--3--3--3--3----|---3--3--3--3--3--3--3-----|
B|-----3--3--3--3--3--3--3----|---3--3--3--3--3--3--3-----|
G|-----4--4--4--4--4--4--4----|---4--4--4--4--4--4--4-----|
D|-----5--5--5--5-----5-------|---5--5--5--5-----5--------|
A|-----5----------------------|---5-----------------------|
E|-----3----------------------|---3-----------------------|
  You got me beggin you for mercy, why won't you release me

       ^  ^  v  ^  v  v  ^       ^  ^  v  ^  v  v  ^
e|-----3--3--3--3--3--3--3---|---3--3--3--3--3--3--3-----|
B|-----3--3--3--3--3--3--3---|---5--5--5--5--5--5--5-----|
G|-----4--4--4--4--4--4--4---|---5--5--5--5--5--5--5-----|
D|-----5--5--5--5-----5--5---|---5--5--5--5--5--5--5-----|
A|-----5-----------------5---|---3--3--3--3--3--3--3-----|
E|-----3-----------------3---|---------------------------|
  You got me beggin you for      mercy,

       ^  ^  v  ^  v  v  ^       ^  ^  v  ^  v  v  ^
e|-----3--3--3--3--3--3--3---|---3--3--3--3--3--3--3-----|
B|-----5--5--5--5--5--5--5---|---3--3--3--3--3--3--3-----|
G|-----5--5--5--5--5--5--5---|---4--4--4--4--4--4--4-----|
D|-----5--5--5--5--5--5--5---|---5--5--5--5-----5--------|
A|-----3-----------------3---|---5-----------------------|
E|---------------------------|---3-----------------------|
       why don't you             release me

       ^  ^  v  ^    ^  ^  v  ^  v      ^  ^  v  ^  v 
e|-----3--3--3--3----5--5--5--5--5--|---3--3--3--3--3----|
B|-----3--3--3--3----7--7--7--7--7--|---5--5--5--5--5----|
G|-----4--4--4--4----7--7--7--7--7--|---5--5--5--5--5----|
D|-----5--5--5--5----7--7--7--7--7--|---5--5--5--5--5----|
A|-----5-------------5--5--5--------|---3--3--3----------|
E|-----3----------------------------|--------------------|
  I said you better  Release -----------------------

       ^  ^  v  ^  v  v  ^     
e|-----3--3--3--3--3--3--3---|
B|-----3--3--3--3--3--3--3---|
G|-----4--4--4--4--4--4--4---|
D|-----5--5--5--5-----5--5---|
A|-----5-----------------5---|
E|-----3-----------------3---|
       yeah,  yeah,  yeah

[Outro]
       ^  ^  v  ^  v  v  ^       ^  ^  v  ^  v  v  ^
e|-----3--3--3--3--3--3--3---|---3--3--3--3--3--3--3-----|
B|-----3--3--3--3--3--3--3---|---5--5--5--5--5--5--5-----|
G|-----4--4--4--4--4--4--4---|---5--5--5--5--5--5--5-----|
D|-----5--5--5--5-----5--5---|---5--5--5--5--5--5--5-----|
A|-----5-----------------5---|---3--3--3--3--3--3--3-----|
E|-----3-----------------3---|---------------------------|
       I'm beggin you for        mercy,

       ^  ^  v  ^  v  v  ^       ^  ^  v  ^  v  v  ^
e|-----3--3--3--3--3--3--3---|---3--3--3--3--3--3--3-----|
B|-----5--5--5--5--5--5--5---|---3--3--3--3--3--3--3-----|
G|-----5--5--5--5--5--5--5---|---4--4--4--4--4--4--4-----|
D|-----5--5--5--5--5--5--5---|---5--5--5--5-----5--------|
A|-----3-----------------3---|---5-----------------------|
E|---------------------------|---3-----------------------|
       Yes, why won't you        release me

       ^  ^  v  ^  v  v  ^       ^  ^  v  ^  v  v  ^
e|-----3--3--3--3--3--3--3---|---3--3--3--3--3--3--3-----|
B|-----3--3--3--3--3--3--3---|---3--3--3--3--3--3--3-----|
G|-----4--4--4--4--4--4--4---|---4--4--4--4--4--4--4-----|
D|-----5--5--5--5-----5--5---|---5--5--5--5--5--5--5-----|
A|-----5-----------------5---|---5-----------------5-----|
E|-----3-----------------3---|---3-----------------3-----|
       I'm beggin you for        mercy,

      ^  ^  v  ^  v  v  ^        ^  ^  v  ^  v  v  ^
e|----x--x--x--x--x--x--x----|---x--x--x--x--x--x--x-----|
B|----x--x--x--x--x--x--x----|---x--x--x--x--x--x--x-----|
G|----x--x--x--x--x--x--x----|---x--x--x--x--x--x--x-----|
D|----x--x--x--x--x--x--x----|---x--x--x--x--x--x--x-----|
A|---------------------------|---------------------------|
E|---------------------------|---------------------------|
     You got me beggin (oh)      You gor me beggin  (oh)

      ^  ^  v  ^  v  v  ^ 
e|----x--x--x--x--x--x--x----|
B|----x--x--x--x--x--x--x----|
G|----x--x--x--x--x--x--x----|
D|----x--x--x--x--x--x--x----|
A|---------------------------|
E|---------------------------|
     You got me be-----ggin

       ^  ^  v  ^  v  v  ^        ^  ^  v  ^  v  v  ^
e|-----3--3--3--3--3--3--3----|---3--3--3--3--3--3--3-----|
B|-----3--3--3--3--3--3--3----|---3--3--3--3--3--3--3-----|
G|-----4--4--4--4--4--4--4----|---4--4--4--4--4--4--4-----|
D|-----5--5--5--5-----5-------|---5--5--5--5-----5--------|
A|-----5----------------------|---5-----------------------|
E|-----3----------------------|---3-----------------------|
  You got me beggin you for mercy, why won't you release me

       ^  ^  v  ^  v  v  ^       ^  ^  v  ^  v  v  ^
e|-----3--3--3--3--3--3--3---|---3--3--3--3--3--3--3-----|
B|-----3--3--3--3--3--3--3---|---5--5--5--5--5--5--5-----|
G|-----4--4--4--4--4--4--4---|---5--5--5--5--5--5--5-----|
D|-----5--5--5--5-----5--5---|---5--5--5--5--5--5--5-----|
A|-----5-----------------5---|---3--3--3--3--3--3--3-----|
E|-----3-----------------3---|---------------------------|
  You got me beggin you for     mercy,

       ^  ^  v  ^  v  v  ^       ^  ^  v  ^  v  v  ^
e|-----3--3--3--3--3--3--3---|---3--3--3--3--3--3--3-----|
B|-----5--5--5--5--5--5--5---|---3--3--3--3--3--3--3-----|
G|-----5--5--5--5--5--5--5---|---4--4--4--4--4--4--4-----|
D|-----5--5--5--5--5--5--5---|---5--5--5--5-----5--------|
A|-----3-----------------3---|---5-----------------------|
E|---------------------------|---3-----------------------|
       why don't you             release me

       ^  ^  v  ^  v  v  ^        ^  ^  v  ^  v  v  ^
e|-----3--3--3--3--3--3--3----|---3--3--3--3--3--3--3-----|
B|-----3--3--3--3--3--3--3----|---3--3--3--3--3--3--3-----|
G|-----4--4--4--4--4--4--4----|---4--4--4--4--4--4--4-----|
D|-----5--5--5--5-----5-------|---5--5--5--5-----5--------|
A|-----5----------------------|---5-----------------------|
E|-----3----------------------|---3-----------------------|
  You got me beggin you for       mercy

       ^  ^  v  ^    ^  ^  v  ^  v      ^  ^  v  ^  v 
e|-----3--3--3--3----5--5--5--5--5--|---3--3--3--3--3----|
B|-----3--3--3--3----7--7--7--7--7--|---5--5--5--5--5----|
G|-----4--4--4--4----7--7--7--7--7--|---5--5--5--5--5----|
D|-----5--5--5--5----7--7--7--7--7--|---5--5--5--5--5----|
A|-----5-------------5--5--5--------|---3--3--3----------|
E|-----3----------------------------|--------------------|
      Why won't you  release -----------------------

       ^  ^  v  ^  v  v  ^     
e|-----3--3--3--3--3--3--3---|
B|-----3--3--3--3--3--3--3---|
G|-----4--4--4--4--4--4--4---|
D|-----5--5--5--5-----5--5---|
A|-----5-----------------5---|
E|-----3-----------------3---|
       me-----  yeah,  yeah,


************************************

| x  Dead note

************************************

            
            
Suggest correction
Creating personal tab
Creating personal tab
You can edit any tab online and save it as your Personal.

You can edit, replace or remove any tab part or add personal notes – all changes will be seen only by you.

Personal tabs can be accessed anytime from any device, even offline.
Learn more »
Give kudos to tab author, rate the tab!
1 2 3 4 5
comments
print report bad tab
guest
You may want to rate the tab now too:
select rating
Wanna post a correction for this tab? Suggest correction