Oops, an error
Loading. Please wait.

Cult Of Love tab

52 views 1 this week
1 commentread comment
1 2 3 4 5
3 more votes to show rating
add to favorites
×
Save as Personal and add changes to this tab that will be seen only by you. Learn more ›
×
You can save this tab as Personal to edit and correct it or add notes. All changes will be seen only by you. Learn more »
launch autoscroll
font size
0
reset
how to read this tab
guitar tuner
edit
Autoscroll
slow
fast
+/-
esc
set tempo
stop
Author
Difficulty
About this tab version
Full lead riffs/solo with chords. Was this info helpful? Yes No
[Intro]  
Am E (x2)

[Verse 1]  
Am                   E
We touch beneath our skin
                        Am
Right down to the bare wires
                E
Time to begin again
                      F7
A spark that fits the fire

[Chorus] 0'23"
This riff is played twice on the F7 to E chord transition:
   F7                        E
E|-13-13-13/12-12-12-10-10-8-7------|
B|----------------------------------|
G|----------------------------------|
D|----------------------------------|
A|----------------------------------|
E|----------------------------------|
     E          F7
I belong (We belong)
     E                  Am
I belong to the cult of love

[Bridge] (0:34) RIFF x2:          
     Am               E (x2)  OR:
E|----------|-------------|---------|-------------|
B|----------|-------------|---------|-------------|
G|----------|-------------|-2-2-3-2-|-2-3-2-------|
D|--7-7-8-7-|-7-8-7-------|---------|-------3-2---|
A|----------|-------8-7---|---------|-------------|
E|----------|-----------0-|---------|-----------0-|

[Verse 2] (0:46) RIFF Play Twice:
(0:46) RIFF Play Twice:
      Am                E
E|----12-------14-----------|
B|-------13-------13--------|
G|----------14-------14-13--|
D|--------------------------|
A|--------------------------|
E|--------------------------|

Am              E
You know all my secrets
                Am
You know all my lies
                E
I know all your evil
                    F7
I know all your alibis

[Chorus] (0:59) RIFF x2:
   F7                        E
E|-13-13-13/12-12-12-10-10-8-7------|
B|----------------------------------|
G|----------------------------------|
D|----------------------------------|
A|----------------------------------|
E|----------------------------------|
     E          F7
I belong (We belong)
     E 
I belong to the cult of

[Bridge 2]  (1:11)
A

F      G    A 
To the cult of
    F  G    A 
To the cult of
    F  G    A 
To the cult of love

Am    E   G    F
Won't you join too?
Am    E   G    F
Won't you join too?

[Outro]  (1:42)
[Chords]
Am  E  G  F  (x2) Am

[LEAD SOLO/OUTRO]
    Am       E   G         F 
E|------------|----------------|
B|------------|----------------|
G|------------|----------------|
D|---2-3-2----|-----0-2-0------|
A|-0------2---|---5-------3-0--|
E|----------0-|-3--------------|

        Am        E   G         F         Am
E|-----------------|---------------|--------|
B|-----------------|---------------|--------|
G|-----------------|---------------|--------|
D|-------2-3-2-----|-----0-2-0-----|--------|
A|-----0-------2---|---5-------3-0-|-----0--|
E|-0-3-----------0-|-3-------------|-0-3----|

************************************

| /  Slide up

************************************

            
            
Suggest correction
Creating personal tab
Creating personal tab
You can edit any tab online and save it as your Personal.

You can edit, replace or remove any tab part or add personal notes – all changes will be seen only by you.

Personal tabs can be accessed anytime from any device, even offline.
Learn more »
Give kudos to tab author, rate the tab!
1 2 3 4 5
comments
print report bad tab
1 comment total.
0 reply
Dalton Lee 227 Mar 03, 2017 10:58 AM

The riff for the second verse should be:

(0:46) RIFF Play Twice:
Am E
E|----12-------12-----------|
B|-------13-------13--------|
G|----------14-------14-13--|
D|--------------------------|
A|--------------------------|
E|--------------------------|

And thanks go to Drool_Mouse for his chord chart it gave a good place to start from.

guest
You may want to rate the tab now too:
select rating
Wanna post a correction for this tab? Suggest correction