Oops, an error
Loading. Please wait.

You Do Something To Me tab

version 1
version 1

Whole song

Interactive

636 views 3 this week
no commentswrite comment
1 2 3 4 5
3 more votes to show rating
add to favorites
×
Save as Personal and add changes to this tab that will be seen only by you. Learn more ›
×
You can save this tab as Personal to edit and correct it or add notes. All changes will be seen only by you. Learn more »
launch autoscroll
font size
0
reset
how to read this tab
guitar tuner
edit
Autoscroll
slow
fast
+/-
esc
set tempo
stop
-------------------------------
DumDums -You Do Something To Me
-------------------------------

This song was released by the band in 2000. It was used for the first theme tune to CBBC’s ‘Xchange’.

-------------------------------
myspace.com/hairy_legged_geek
-------------------------------

Tunning: Standard
Capo on 3rd Fret

Intro
    G   Cadd9  D   x2
E---3----3----2---|
B---3----3----3---|
G---0----0----2---|
D---0----2----0---|
A—--2----3--------|
E---3-------------|

   Em7  Cadd9  D   x2
E---3----3----2---|
B---3----3----3---|
G---0----0----2---|
D---2----2----0---|
A—--2----3--------|
E---0-------------|

Verse w/intro:
Mum felt fine, wanting to kill the family before the news,
She’s the ruler of the Prozac kingdom,
Her appliances and phoney conversations,

Talk to your mum, Wendy, even if she seems distant lately,
It’s just the sunshine in her eyes,
The weather that the doctor prescribed,

Bridge
    A               Cadd9            G
E---0----------------3--------------3------|
B---2----------------3--------------3------|
G---2----------------0--------------0------|
D---2----------------2--------------0------|
A—--0----------------3--------------2------|
E-----------------------------------3------|
And Wendy's warming her hands on the flame,

    A               Cadd9        D
E---0----------------3----------2---------------|
B---2----------------3----------3---------------|
G---2----------------0----------2---------------|
D---2----------------2----------0---------------|
A—--0----------------3--------------------------|
E-----------------------------------------------|
The Halversons will never be the same, wuh oh oh

Chorus:

  Em7    Cadd9     D
E--3------3-------2----|
B--3------3-------3----|
G--0------0-------2----|
D--2------2-------0----|
A—-2------3------------|
E--0-------------------|
  You do something to me,

  Em7    Cadd9     D
E--3------3-------2----|
B--3------3-------3----|
G--0------0-------2----|
D--2------2-------0----|
A—-2------3------------|
E--0-------------------|
  You do something to me,

  Em7    Cadd9     D      Cadd9           D
E--3------3-------2--------3------------2--|
B--3------3-------3--------3------------3--|
G--0------0-------2--------0------------2--|
D--2------2-------0--------2------------0--|
A—-2------3----------------3---------------|
E--0---------------------------------------|
  You do something to me, all the time...

Play intro

Verse
Dad was sick, he got his fingers burnt getting close to an old flame,
Wonders why his wife cries all the time,
Wonders why he cant find peace of mind.

You cant expect your kids to turn out fine,
When you're playing with matches,
Another tragic fall from success,
Nero fiddles on, enchanted,

Bridge

Chorus  x2

Random bit (can’t remember the pro name!)

   D           Em7                  Cadd9
E--2-----------3---------------------3------------------------|
B--3-----------3---------------------3------------------------|
G--2-----------0---------------------0------------------------|
D--0-----------2---------------------2------------------------|
A—-------------2---------------------3------------------------|
E-------------------------------------------------------------|
   He wanders, godlike, through the ruins of his private world,

   D           Em7             Cadd9
E--2-----------3----------------3------------------------|
B--3-----------3----------------3------------------------|
G--2-----------0----------------0------------------------|
D--0-----------2----------------2------------------------|
A—-------------2----------------3------------------------|
E--------------------------------------------------------|
  Lights up a joint and Wendy slips away,

   D         Em7               Cadd9
E--2----------3-----------------3-------|
B--3----------3-----------------3-------|
G--2----------0-----------------0-------|
D--0----------2-----------------2-------|
A—------------2-----------------3-------|
E---------------------------------------|
   Looks for redemption in her hazel eyes,

    D  Em7         Cadd9
E---2---3-----------3----------------|
B---3---3-----------3----------------|
G---2---0-----------0----------------|
D---0---2-----------2----------------|
A—------2-----------3----------------|
E------------------------------------|
And cries, all the time....wuh oh oh

Chorus

Outro
   G     Cadd9    D x7
E--3------3------2-----------|
B--3------3------3-----------|
G--0------0------2-----------|
D--0------2------0-----------|
A—-2------3------------------|
E--3-------------------------|

  Em7    Cadd9    D    G
E--3------3------2----3------|
B--3------3------3----3------|
G--0------0------2----0------|
D--2------2------0----0------|
A—-2------3-----------2------|
E---------------------3------|

That’s it. Listen to the song for the timing!

Contact: myspace.com/hairy_legged_geek
Suggest correction
Creating personal tab
Creating personal tab
You can edit any tab online and save it as your Personal.

You can edit, replace or remove any tab part or add personal notes – all changes will be seen only by you.

Personal tabs can be accessed anytime from any device, even offline.
Learn more »
Give kudos to tab author, rate the tab!
1 2 3 4 5
comments
print report bad tab
guest
You may want to rate the tab now too:
select rating
Wanna post a correction for this tab? Suggest correction