Oops, an error
Loading. Please wait.

Days Go By Tab

539 views 6 this week
no commentswrite comment
1 2 3 4 5
please rate
add to favorites
launch autoscroll
font size
0
reset
how to read this tab
guitar tuner
Tab Pro tools
  • play this tab
  • loop segment
  • change instrument
  • show fretboard
  • metronome
Autoscroll
slow
fast
+/-
esc
set tempo
stop
Contributor
-----------------------------------------------------------------
Days Go By - Duncan Sheik
-----------------------------------------------------------------
Tabbed by: Zachary Franco
Email: zacharyfranco@gmail.com

Tuning: E
             B
             F#
             E
             B
             E
I use a pick instead of fingerpicking to make each note louder.

Intro
Verse 1&2
Verse 3 (This verse notice that you play the ending a little different from the other two)
Chorus (Esus2/G# and Esus2 at the end of the chorus you just strum them as chords)
Verse 1&2
Verse 3
Chorus
Outro

Intro:
       B(add4)  Bsus4  Esus2/G#
e|---------------------------------------0-----------------------|
B|--------------------------0----------------0-------0-----------|
G|---------0-------0------------0------------------------0-------|
D|-------0-------0-------0---0--------0---0-------0---0----------|
A|-----4---------------------------------------------------------|
E|-------------2-------4------------4------------4---------------|

    C#m(add4)          F#7sus4
e|-------------------------------0-------------------------------|
B|-------------------0---------------0---------------------------|
G|-------0---------------0----------------0---0---0--------------|
D|-----0----------0----0-------0---0----4---2---0-----0---0---0--|
A|---2------4----------------------------------------4---2---0---|
E|---------------2------------2----------------------------------|

           Esus2/G#                            C#m(add4)
e|---------------------0-----------------------------------------|
B|---------0---------------0--------0----------------------------|
G|-------------0------------------------0-------0----------------|
D|------0---0-------0---0--------0---0--------0------------------|
A|-------------------------------------------2------4------------|
E|----4-----------4------------4---------------------------------|

           F#7sus4                  E(add9)#11
e|----------------------0------------2---------------------------|
B|---------0----------------0---------0--------------------------|
G|-------------0-----------------------4-------------------------|
D|------0---0--------0---0--------------4------------------------|
A|----------------------------------------0----------------------|
E|----2------------2-----------2-----------0---------------------|

e|---------2-------------------------2---------------------------|
B|-------------0---------0---------------0--------0--------------|
G|-----------4-------4-------4---------4-----4-------4-----------|
D|------4------------------4------4-----------------4------------|
A|---------------------0------------------------0----------------|
E|----0------------0------------0-----------0--------------------|

e|---------2-----------------------------------------------------|
B|-------------0---------0---------------------------------------|
G|-----------4-------4-------4-----------------------------------|
D|------4------------------4-------------------------------------|
A|---------------------0-----------------------------------------|
E|----0------------0-------------0-------------------------------|

Verse 1
        Emaj9
e|---0------------0-------------------------0--------------------|
B|----4---------------4-------------------------4----------------|
G|-----0------------0-----------0-------------0----------0-------|
D|------0-------0----------0--------0-----0----------0-------0---|
A|-------0--------------------0---0---------------------0--0-----|
E|--------0---0----------0--------------0----------0-------------|

e|-------------0-------------------------0-----------------------|
B|-----------------4-------------------------4-------------------|
G|---------------0-----------0-------------0----------0----------|
D|-----------0----------0--------0-----0----------0-------0------|
A|-------------------------0---0---------------------0--0--------|
E|---------0----------0--------------0----------0----------------|


                B5                     B5maj7       **B5
e|-------7---------7---------7---------6---------2---------------|
B|----------0---------0---------0---------0---------0------------|
G|-----0--0------0--0------0--0------0--0------0--0--------------|
D|---------------------------------------------------------------|
A|---0---------0---------0----------0---------0------------------|
E|---------------------------------------------------------------|


e|-------2---------2---------2-----------------------------------|
B|----------0---------0---------0--------------------------------|
G|-----0--0------0--0------0--0----------------------------------|
D|---------------------------------------------------------------|
A|---0---------0---------0---------------------------------------|
E|---------------------------------------------------------------|

Verse 2
                     Emaj9
e|----------------0-------------------------0--------------------|
B|--------------------4-------------------------4----------------|
G|------------------0-----------0-------------0----------0-------|
D|--------------0----------0--------0-----0----------0-------0---|
A|----------------------------0---0---------------------0--0-----|
E|------------0----------0--------------0----------0-------------|


e|-------------0-------------------------0-----------------------|
B|-----------------4-------------------------4-------------------|
G|---------------0-----------0-------------0----------0----------|
D|-----------0----------0--------0-----0----------0-------0------|
A|-------------------------0---0---------------------0--0--------|
E|---------0----------0--------------0----------0----------------|



         B5                           B5maj7       **B5
e|-------7---------7---------7---------6---------2---------------|
B|----------0---------0---------0---------0---------0------------|
G|-----0--0------0--0------0--0------0--0------0--0--------------|
D|---------------------------------------------------------------|
A|---0---------0---------0----------0---------0------------------|
E|---------------------------------------------------------------|


e|-------2---------2---------2-----------------------------------|
B|----------0---------0---------0--------------------------------|
G|-----0--0------0--0------0--0----------------------------------|
D|---------------------------------------------------------------|
A|---0---------0---------0---------------------------------------|
E|---------------------------------------------------------------|

Verse 3
                  Emaj9
e|----------------0-------------------------0--------------------|
B|--------------------4-------------------------4----------------|
G|------------------0-----------0-------------0----------0-------|
D|--------------0----------0--------0-----0----------0-------0---|
A|----------------------------0---0---------------------0--0-----|
E|------------0----------0--------------0----------0-------------|


e|-------------0-------------------------0-----------------------|
B|-----------------4-------------------------4-------------------|
G|---------------0-----------0-------------0----------0----------|
D|-----------0----------0--------0-----0----------0-------0------|
A|-------------------------0---0---------------------0--0--------|
E|---------0----------0--------------0----------0----------------|



             B5
e|------7--------7---------7---------9---------11-------11-------|
B|---------0--------0---------0---------0----------0--------0----|
G|----0--0-----0--0------0--0------0--0------0---0----0---0------|
D|---------------------------------------------------------------|
A|--0--------0---------0----------0---------0--------0-----------|
E|-------------------------------------------------------------0-|


Chorus
          B(add4)   Bsus4       Esus2/G#
e|---------------------------------------0-----------------------|
B|--------------------------0----------------0-------0-----------|
G|---------0-------0------------0------------------------0-------|
D|-------0-------0-------0---0--------0---0-------0---0----------|
A|-----4---------------------------------------------------------|
E|-------------2-------4------------4------------4---------------|


        C#m(add4)     F#7sus4
e|-------------------------------0-------------------------------|
B|-------------------0---------------0---------------------------|
G|-------0---------------0----------------0---0---0--------------|
D|-----0----------0----0-------0---0----4---2---0-----0---0---0--|
A|---2------4----------------------------------------4---2---0---|
E|---------------2------------2----------------------------------|


           Esus2/G#                          C#m(add4)
e|---------------------0-----------------------------------------|
B|---------0---------------0--------0----------------------------|
G|-------------0------------------------0-------0----------------|
D|------0---0-------0---0--------0---0--------0------------------|
A|-------------------------------------------2------4------------|
E|----4-----------4------------4---------------------------------|


           F#7sus4             Esus2/G#          Esus2
e|----------------------0------------0-----------2---------------|
B|---------0----------------0--------0-----------0---------------|
G|-------------0---------------------0-----------0---------------|
D|------0---0--------0---0-----------0-----------0---------------|
A|-----------------------------------x-----------0---------------|
E|----2------------2-----------2-----4-----------0---------------|

Outro

e|------0------------------0------------------0------------------|
B|---------0------0-----------0------0-----------0-------0-------|
G|-------0------------0-----0-----------0------0-----------0-----|
D|----0--------0----0----0-------0----0-----0--------0----0------|
A|---------------0-----------------0-------------------0---------|
E|--4---------4---------4-------4----------4--------4------------|

e|-----0-------------------2--------------------2----------------|
B|--------0--------0----------0-------0-----------0------0-------|
G|------0------------0------0-----0------0-------0----0----0-----|
D|---0---------0----0----0-------------0------0-----------0------|
A|---------------0------------------0-------------------0--------|
E|--4--------4----------0-------0------------0-------0-----------|


| /  slide up
| \  slide down
| h  hammer-on
| p  pull-off
| ~  vibrato
| +  harmonic
| x  Mute note
comments
We did not receive enough feedback on this tab! Please rate:
print report bad tab
1 2 3 4 5
I want to post or [tab]
guest
You may want to rate the tab now too:
select rating
Please do not post tabs as comments. Select "correction" instead!