Oops, an error
Loading. Please wait.

Half Life Chords

version 1
version 1

Acoustic

Whole song

20,064 views 66 this week
no commentswrite comment
1 2 3 4 5
excellent!
x 23
add to favorites
launch autoscroll
font size
0
reset
transpose
0
reset
simplify chords
display chords
guitar tuner
Tab Pro tools
  • play this tab
  • loop segment
  • change instrument
  • show fretboard
  • metronome
×
Best way to learn
"Half Life"
Autoscroll
slow
fast
+/-
esc
set tempo
stop
Contributor
Capo
1st fret
#----------------------------------PLEASE NOTE---------------------------------#
#This file is the author's own work and represents their interpretation of the #
#song. You may only use this file for private study, scholarship, or research. #
#------------------------------------------------------------------------------#

Song: HALF LIFE (ACOUSTIC VERSION)
Artist: Duncan Sheik
Chords by: Louie A. Ebojo
From: ebbskyz@yahoo.com


Note: Use a capo on the 1st fret. This is good for a solo acoustic guitar.

Tuning: EADGBe
Chords:
E	022100
F#m7	2x2200
F#msus2	2x2400
Asus2	x02200
A9	x02400
A9/G#	402400
B5	x24400
B9	x24422
C#m5	x42100
C#m9	x46800
C#m	x46650
D9	xx0230
G#7	4245xx



     E     F#m7   Asus2   C#m5
e|---0------0-------0------0-----0----                                  
B|---0------0-------0------0-----0----
G|---1------2-------2------1-----2----
D|---2------2-------2------2-----2----
A|---2------x-------0------4-----0----
E|---0------2-------x------x-----x----


E
I'm awake in the afternoon
F#m7
I fell asleep in the living room
     Asus2
It's one of those moments
     C#m5             Asus2
When everything is so clear.


E
Before the truth goes back into hiding
F#m7
I wanna decide 'cause it's worth deciding
   Asus2           C#m5                     Asus2
To work on finding something more than this fear.


     D9    C#m5   Asus2   
e|---0------0-------0------                                 
B|---3------0-------0------
G|---2------1-------2------
D|---0------2-------2------
A|---x------4-------0------
E|---x------x-------x------


    D9           C#m5          Asus2
It takes so much out of me to pretend.
 D9           C#m5           Asus2
Tell me now, tell me how to make amends.


Chorus:

     E      B5    G#7    C#m9   Asus2
e|---0------0------x-------0-------0-----                                  
B|---0------0------x-------0-------0-----
G|---1------4------5-------8-------2-----
D|---2------4------4-------6-------2-----
A|---2------2------2-------4-------0-----
E|---0------x------4-------x-------x-----


E                          B5
Maybe, I need to see the daylight
G#7                 C#m9
Leave behind this half-life
                   Asus2
Don't you see I'm breaking down.


     E     B5    G#7    C#m9   A9    A9/G#   F#m7   E    B5
e|---0-----0------x------0------0------0------0-----0----0--                                 
B|---0-----0------x------0------0------0------0-----0----0--
G|---1-----4------5------8------4------4------2-----1----4--
D|---2-----4------4------6------2------2------2-----2----4--
A|---2-----2------2------4------0------0------x-----2----2--
E|---0-----x------4------x------x------4------2-----0----x--


E                               B5
Oh lately, something here don't feel right
G#7              C#m9
this is just a half-life
                A9         A9/G#
Is there really no escape,
                F#m7 E         B5
No escape from time    of any kind?




    C#m     B9   Asus2
e|---0------2------0-----                                  
B|---5------2------0-----
G|---6------4------2-----
D|---6------4------2-----
A|---4------2------0-----
E|---0------x------x-----


Interlude: C#m-B9-Asus2



E
I keep trying to understand
F#m7
This thing and that thing, my fellow man
   Asus2             C#m5                  Asus2
I guess I'll let you know when i figure it out.


E
But I don't mind a few mysteries
F#m7
They can stay that way it's fine by me
    Asus2            C#m5          Asus2
But, you are another mystery i am missing.

D9                C#m5          Asus2
It takes too much out of me to pretend.

	(Repeat Chorus)



    C#m     B9   Asus2
e|---0------2------0-----                                  
B|---5------2------0-----
G|---6------4------2-----
D|---6------4------2-----
A|---4------2------0-----
E|---0------x------x-----

C#m           B9     Asus2
Come on lets fall in love,
C#m           B9     Asus2
Come on lets fall in love,


    C#m     B9     A9   F#msus2
e|---0------2------0------0----                                  
B|---5------2------0------0----
G|---6------4------4------4----
D|---6------4------2------2----
A|---4------2------0------x----
E|---0------x------x------2----


C#m           B9      A9         F#msus2
Come on lets fall in love, again...


        E                           B5
'Cause lately something here don't feel right
G#7             C#m9
This is just a half-life,
                  Asus2
Without you I am breaking down.

     E                        B5
Oh, wake me, let me see the daylight
G#7                C#m9
Save me from this half-life
       A9        A9/G#  F#m7 E
Let's you and I escape,
             B5
Escape from time...


C#m           B9     Asus2
Come on lets fall in love,
C#m           B9     Asus2
Come on lets fall in love,
C#m           B9      A9
Come on lets fall in love, again...


EH, THAT'S ALL FOLKS!
comments
print report bad tab
I want to post or [tab]
guest
You may want to rate the tab now too:
select rating
Please do not post tabs as comments. Select "correction" instead!