Oops, an error
Loading. Please wait.

White Limousine Acoustic tab

version 2
version 2

Whole song

37 views 1 this week
no commentswrite comment
1 2 3 4 5
3 more votes to show rating
add to favorites
×
Save as Personal and add changes to this tab that will be seen only by you. Learn more ›
×
You can save this tab as Personal to edit and correct it or add notes. All changes will be seen only by you. Learn more »
launch autoscroll
font size
0
reset
how to read this tab
guitar tuner
edit
Autoscroll
slow
fast
+/-
esc
set tempo
stop
Author
White Limousine by Duncan Sheik
transcribed by Arthur Liam based on the live acoustic version

Tuning CGCGCE Capo 5th


[Intro]

(for album version)

e|-----7-----------6----------|
C|---7-----------7------------|
G|-5-----------8--------------|
C|----------------------------|
G|----------------------------|
C|----------------------------|


[Verse]

e|-0-0--0-0-0--0-0-0--0-0-0--0-0--1-1-1--1-1-1--1-1-1-|
C|----------------------------------------------------|
G|-4-4--4-4-4--4-4-4--4-4-4--3-3--3-3-3--3-3-3--3-3-3-|
C|-4-4--4-4-4--4-4-4--4-4-4--3-3--3-3-3--3-3-3--3-3-3-|
G|-0-0--0-0-0--0-0-0--0-0-0--0-0--0-0-0--0-0-0--0-0-0-|
C|-0-0--0-0-0--0-0-0--0-0-0--0-0--0-0-0--0-0-0--0-0-0-|


[Chorus]

(May be a white...)
e|-------1--1-1-1-------1--1-1-1-0-0-0-0--0-0-0-0-0-0-|
C|-------0--0-0-0-------0--0-0-0-4-4-4-4--0-0-0-0-0-0-|
G|-------0--0-0-0-------0--0-0-0-4-4-4-4--0-0-0-0-0-0-|
C|-------0--0-0-0-------0--0-0-0-4-4-4-4--4-4-4-4-4-4-|
G|-3-3-3-3--3-3-3-2-2-2-2--2-2-2-0-0-0-0--0-0-0-0-0-0-|
C|-3-3-3-3--3-3-3-2-2-2-2--2-2-2-0-0-0-0--0-0-0-0-0-0-|
 [pm---]        [pm---]
      

[Bridge]

(A few incentinves for...)
e|-----------------------------------------1-1-1-1-1-1-1-1-1-1-1-1-|
C|-5-5-5-5-5-5-5-5-4-4-4-5-5-5-5-5-0-0-0-0-0-0-0-0-2-2-2-2-0-0-0-0-|
G|-5-5-5-5-5-5-5-5-5-5-5-5-5-5-5-5-2-2-2-2-2-2-2-2-2-2-2-2-2-2-2-2-| Repeat as needeed
C|-5-5-5-5-5-5-5-5-5-5-5-5-5-5-5-5-2-2-2-2-2-2-2-2-2-2-2-2-2-2-2-2-|
G|-----------------------------------------------------------------|
C|-----------------------------------------------------------------|
 [pm-------------------------------------------------------------] 

(I'm making up...)
e|---------1-1-1-1-1-1-1-1-1-1-1-1-|
C|-0-0-0-0-0-0-0-0-2-2-2-2-0-0-0-0-|
G|-2-2-2-2-2-2-2-2-2-2-2-2-2-2-2-2-|
C|-2-2-2-2-2-2-2-2-2-2-2-2-2-2-2-2-|
G|-3-3-3-3-3-3-3-3-3-3-3-3-3-3-3-3-|
C|---------------------------------|
 [pm-----------------------------]

(Oh I'm making up...)
e|---------1-1-1-1-1-1-1-1-1-1-1-1-|
C|-0-0-0-0-0-0-0-0-2-2-2-2-0-0-0-0-|
G|-2-2-2-2-2-2-2-2-2-2-2-2-2-2-2-2-|
C|-0-0-0-0-0-0-0-0-0-0-0-0-0-0-0-0-|
G|-2-2-2-2-2-2-2-2-2-2-2-2-2-2-2-2-|
C|---------------------------------|
 [pm-----------------------------]


(for lost time...)
e|--------------------------|
C|-2-2--2-2-2--2-2-2--2-2-2-|
G|-5-5--5-5-5--5-5-5--5-5-5-|
C|-5-5--5-5-5--5-5-5--5-5-5-|
G|-0-0--0-0-0--0-0-0--0-0-0-|
C|--------------------------|

(for all the lost time...)
e|---------------3-3--3-3-3-|
C|-2-2--2-2-2--2-0-0--0-0-0-|
G|-4-4--4-4-4--4-4-4--4-4-4-|
C|-5-5--5-5-5--5-5-5--5-5-5-|
G|-0-0--0-0-0--0-0-0--0-0-0-|
C|--------------------------|


(Solo over Verse)


[Verse]

e|-0-0--0-0-0--0-0-0--0-0-0--0-0--1-1-1--1-1-1--1-1-1-|
C|----------------------------------------------------|
G|-4-4--4-4-4--4-4-4--4-4-4--3-3--3-3-3--3-3-3--3-3-3-|
C|-4-4--4-4-4--4-4-4--4-4-4--3-3--3-3-3--3-3-3--3-3-3-|
G|-0-0--0-0-0--0-0-0--0-0-0--0-0--0-0-0--0-0-0--0-0-0-|
C|-0-0--0-0-0--0-0-0--0-0-0--0-0--0-0-0--0-0-0--0-0-0-|


[Chorus]

(May be a white...)
e|-------1--1-1-1-------1--1-1-1-0-0-0-0--0-0-0-0-0-0-|
C|-------0--0-0-0-------0--0-0-0-4-4-4-4--0-0-0-0-0-0-|
G|-------0--0-0-0-------0--0-0-0-4-4-4-4--0-0-0-0-0-0-|
C|-------0--0-0-0-------0--0-0-0-4-4-4-4--4-4-4-4-4-4-|
G|-3-3-3-3--3-3-3-2-2-2-2--2-2-2-0-0-0-0--0-0-0-0-0-0-|
C|-3-3-3-3--3-3-3-2-2-2-2--2-2-2-0-0-0-0--0-0-0-0-0-0-|
 [pm---]        [pm---]
      

[Verse]

e|-0-0--0-0-0--0-0-0--0-0-0--0-0--1-1-1--1-1-1--1-1-1-|
C|----------------------------------------------------|
G|-4-4--4-4-4--4-4-4--4-4-4--3-3--3-3-3--3-3-3--3-3-3-|
C|-4-4--4-4-4--4-4-4--4-4-4--3-3--3-3-3--3-3-3--3-3-3-|
G|-0-0--0-0-0--0-0-0--0-0-0--0-0--0-0-0--0-0-0--0-0-0-|
C|-0-0--0-0-0--0-0-0--0-0-0--0-0--0-0-0--0-0-0--0-0-0-|


[Chorus]

(May be a white...)
e|-------1--1-1-1-------1--1-1-1-0-0-0-0--0-0-0-0-0-0-|
C|-------0--0-0-0-------0--0-0-0-4-4-4-4--0-0-0-0-0-0-|
G|-------0--0-0-0-------0--0-0-0-4-4-4-4--0-0-0-0-0-0-|
C|-------0--0-0-0-------0--0-0-0-4-4-4-4--4-4-4-4-4-4-|
G|-3-3-3-3--3-3-3-2-2-2-2--2-2-2-0-0-0-0--0-0-0-0-0-0-|
C|-3-3-3-3--3-3-3-2-2-2-2--2-2-2-0-0-0-0--0-0-0-0-0-0-|
 [pm---]        [pm---]
 

[Outro]

(We have won the war...)
e|-2----|
C|------|
G|-0----|
C|-4----| [Repeat til fade]
G|-0----|
C|-0----| 




Lyrics


I guess they think it's what we want
A smooth and easy ride
Constellations of ceiling lights
Hennessey and Naugahyde

America, America
And this is our reward
Everything is boring
And everyone is bored

Maybe white, maybe a white limousine,
Maybe a white, white, white, white limousine

Who's the smart guy at the wheel
We're running out of gas
He likes to wear a flight suit
And fly around for laughs

Maybe white, maybe a white limousine,
Maybe a white, white, white, white limousine

A few incentives for the pharmacy
Hey, I'm feeling better already
I don't want to be clear, that's too much for me
I'm making up
Oh I'm making up
For lost time
For all the lost time

Maybe white, maybe a white limousine,
Maybe a white, white, white, white limousine
Maybe white, maybe a white limousine,
Maybe a white, white, white, white limousine

Outside of the limousine
Grown men they do cry
The bill for seven hours
Is worth how many lives?

Maybe white, maybe a white limousine,
Maybe a white, white, white, white limousine
We have won the war!
We have won the war!

            
            
Suggest correction
Creating personal tab
Creating personal tab
You can edit any tab online and save it as your Personal.

You can edit, replace or remove any tab part or add personal notes – all changes will be seen only by you.

Personal tabs can be accessed anytime from any device, even offline.
Learn more »
Give kudos to tab author, rate the tab!
1 2 3 4 5
comments
print report bad tab
guest
You may want to rate the tab now too:
select rating
Wanna post a correction for this tab? Suggest correction