Oops, an error
Loading. Please wait.

Dalai Lama Big Banana Marijuana bass

172 views 30 this week
no commentswrite comment
1 2 3 4 5
3 more votes to show rating
add to favorites
×
Save as Personal and add changes to this tab that will be seen only by you. Learn more ›
×
You can save this tab as Personal to edit and correct it or add notes. All changes will be seen only by you. Learn more »
launch autoscroll
font size
0
reset
guitar tuner
edit
Autoscroll
slow
fast
+/-
esc
set tempo
stop
Artist: Dune Rats
Song: Dalai Lama Big Banana Marijuana
Tuning - Standard
tabbed by electricbunny

[Intro] 
G|----------------1---1-----------|----------------1---1-----------|
D|2-------2---4-----------4---2---|----2---2---4-----------4---2---|
A|--------------------------------|--------------------------------|
E|--------------------------------|--------------------------------|
 
G|----------------1---1-----------|--------------------------------|
D|----2---2---4-----------4---0---|--------------------------------|
A|--------------------------------|2-----------2---0-----------0---|
E|--------------------------------|--------------------------------|
 
G|----------------1---1-----------|----------------1---1-----------|
D|2-------2---4-----------4---2---|----2---2---4-----------4---2---|
A|--------------------------------|--------------------------------|
E|--------------------------------|--------------------------------|
 
G|----------------1---1-----------|--------------------------------|
D|----2---2---4-----------4---0---|--------------------------------|
A|--------------------------------|2-----------2---0-----------0---|
E|--------------------------------|--------------------------------|
 
G|----------------1---1-----------|----------------1---1-----------|
D|2-------2---4-----------4---2---|----2---2---4-----------4---2---|
A|--------------------------------|--------------------------------|
E|--------------------------------|--------------------------------|
 
G|----------------1---1-----------|--------------------------------|
D|----2---2---4-----------4---0---|--------------------------------|
A|--------------------------------|2-----------2---0-----------0---|
E|--------------------------------|--------------------------------|

[Chorus] 
G|--------------------------------|--------------------------------|
D|--------------------------------|--------------------------------|
A|--------------------------------|--------------------------------|
E|0-------0---0---0---0---0---0---|----0---0---0---0---0---0---0---|
 
G|--------------------------------|--------------------------------|
D|--------------------------------|--------------------------------|
A|--------------------------------|2---2---2---2---0---0---0---0---|
E|----0---0---0---0---0---0---0---|--------------------------------|
 
G|--------------------------------|--------------------------------|
D|--------------------------------|--------------------------------|
A|--------------------------------|--------------------------------|
E|0-------0---0---0---0---0---0---|----0---0---0---0---0---0---0---|
 
G|--------------------------------|--------------------------------|
D|--------------------------------|--------------------------------|
A|--------------------------------|2---2---2---2---0---0---0---0---|
E|----0---0---0---0---0---0---0---|--------------------------------|

[Instrumental] 
G|----------------1---1-----------|----------------1---1-----------|
D|2-------2---4-----------4---2---|----2---2---4-----------4---2---|
A|--------------------------------|--------------------------------|
E|--------------------------------|--------------------------------|
 
G|----------------1---1-----------|--------------------------------|
D|----2---2---4-----------4---0---|--------------------------------|
A|--------------------------------|2-----------2---0-----------0---|
E|--------------------------------|--------------------------------|
 
G|----------------1---1-----------|----------------1---1-----------|
D|2-------2---4-----------4---2---|----2---2---4-----------4---2---|
A|--------------------------------|--------------------------------|
E|--------------------------------|--------------------------------|
 
G|----------------1---1-----------|--------------------------------|
D|----2---2---4-----------4---0---|--------------------------------|
A|--------------------------------|2-----------2---0-----------0---|
E|--------------------------------|--------------------------------|

[Chorus] 
G|--------------------------------|--------------------------------|
D|--------------------------------|--------------------------------|
A|--------------------------------|--------------------------------|
E|0-------0---0---0---0---0---0---|----0---0---0---0---0---0---0---|
 
G|--------------------------------|--------------------------------|
D|--------------------------------|--------------------------------|
A|--------------------------------|2---2---2---2---0---0---0---0---|
E|----0---0---0---0---0---0---0---|--------------------------------|
 
G|--------------------------------|--------------------------------|
D|--------------------------------|--------------------------------|
A|--------------------------------|--------------------------------|
E|0-------0---0---0---0---0---0---|----0---0---0---0---0---0---0---|
 
G|--------------------------------|--------------------------------|
D|--------------------------------|--------------------------------|
A|--------------------------------|2---2---2---2---0---0---0---0---|
E|----0---0---0---0---0---0---0---|--------------------------------|

[Instrumental] 
G|----------------1---1-----------|----------------1---1-----------|
D|2-------2---4-----------4---2---|----2---2---4-----------4---2---|
A|--------------------------------|--------------------------------|
E|--------------------------------|--------------------------------|
 
G|----------------1---1-----------|--------------------------------|
D|----2---2---4-----------4---0---|--------------------------------|
A|--------------------------------|2-----------2---0-----------0---|
E|--------------------------------|--------------------------------|
 
G|----------------1---1-----------|----------------1---1-----------|
D|2-------2---4-----------4---2---|----2---2---4-----------4---2---|
A|--------------------------------|--------------------------------|
E|--------------------------------|--------------------------------|
 
G|----------------1---1-----------|--------------------------------|
D|----2---2---4-----------4---0---|--------------------------------|
A|--------------------------------|2-----------2---0-----------0---|
E|--------------------------------|--------------------------------|

[Chorus] 
G|--------------------------------|--------------------------------|
D|--------------------------------|--------------------------------|
A|--------------------------------|--------------------------------|
E|0-------0---0---0---0---0---0---|----0---0---0---0---0---0---0---|
 
G|--------------------------------|--------------------------------|
D|--------------------------------|--------------------------------|
A|--------------------------------|2---2---2---2---0---0---0---0---|
E|----0---0---0---0---0---0---0---|--------------------------------|
 
G|--------------------------------|--------------------------------|
D|--------------------------------|--------------------------------|
A|--------------------------------|--------------------------------|
E|0-------0---0---0---0---0---0---|----0---0---0---0---0---0---0---|
 
G|--------------------------------|--------------------------------|
D|--------------------------------|--------------------------------|
A|--------------------------------|2---2---2---2---0---0---0---0---|
E|----0---0---0---0---0---0---0---|--------------------------------|

[Instrumental] 
G|----------------1---1-----------|----------------1---1-----------|
D|2-------2---4-----------4---2---|----2---2---4-----------4---2---|
A|--------------------------------|--------------------------------|
E|--------------------------------|--------------------------------|
 
G|----------------1---1-----------|--------------------------------|
D|----2---2---4-----------4---0---|--------------------------------|
A|--------------------------------|2-----------2---0-----------0---|
E|--------------------------------|--------------------------------|
 
G|----------------1---1-----------|----------------1---1-----------|
D|2-------2---4-----------4---2---|----2---2---4-----------4---2---|
A|--------------------------------|--------------------------------|
E|--------------------------------|--------------------------------|
 
G|----------------1---1-----------|--------------------------------|
D|----2---2---4-----------4---0---|--------------------------------|
A|--------------------------------|2-----------2---0-----------0---|
E|--------------------------------|--------------------------------|

[Chorus] 
G|--------------------------------|--------------------------------|
D|--------------------------------|--------------------------------|
A|--------------------------------|--------------------------------|
E|0-------0---0---0---0---0---0---|----0---0---0---0---0---0---0---|
 
G|--------------------------------|--------------------------------|
D|--------------------------------|--------------------------------|
A|--------------------------------|2---2---2---2---0---0---0---0---|
E|----0---0---0---0---0---0---0---|--------------------------------|
 
G|--------------------------------|--------------------------------|
D|--------------------------------|--------------------------------|
A|--------------------------------|--------------------------------|
E|0-------0---0---0---0---0---0---|----0---0---0---0---0---0---0---|
 
G|--------------------------------|--------------------------------|
D|--------------------------------|--------------------------------|
A|--------------------------------|2---2---2---2---0---0---0---0---|
E|----0---0---0---0---0---0---0---|--------------------------------|

[Outro] 
G|----------------1---1-----------|----------------1---1-----------|
D|2-------2---4-----------4---2---|----2---2---4-----------4---2---|
A|--------------------------------|--------------------------------|
E|--------------------------------|--------------------------------|
 
G|----------------1---1-----------|--------------------------------|
D|----2---2---4-----------4---0---|--------------------------------|
A|--------------------------------|2-----------2---0-----------0---|
E|--------------------------------|--------------------------------|
 
G|----------------1---1-----------|----------------1---1-----------|
D|2-------2---4-----------4---2---|----2---2---4-----------4---2---|
A|--------------------------------|--------------------------------|
E|--------------------------------|--------------------------------|
 
G|----------------1---1-----------|--------------------------------|
D|----2---2---4-----------4---0---|--------------------------------|
A|--------------------------------|2-----------2---0-----------0---|
E|--------------------------------|--------------------------------|
 
G|--------------------------------|
D|--------------------------------|
A|--------------------------------|
E|0-------------------------------|

            
            
Suggest correction
Creating personal tab
Creating personal tab
You can edit any tab online and save it as your Personal.

You can edit, replace or remove any tab part or add personal notes – all changes will be seen only by you.

Personal tabs can be accessed anytime from any device, even offline.
Learn more »
Give kudos to tab author, rate the tab!
1 2 3 4 5
comments
print report bad tab
guest
You may want to rate the tab now too:
select rating
Wanna post a correction for this tab? Suggest correction