Oops, an error
Loading. Please wait.

Scott Green bass

367 views 45 this week
no commentswrite comment
1 2 3 4 5
3 more votes to show rating
add to favorites
×
Save as Personal and add changes to this tab that will be seen only by you. Learn more ›
×
You can save this tab as Personal to edit and correct it or add notes. All changes will be seen only by you. Learn more »
launch autoscroll
font size
0
reset
guitar tuner
edit
Autoscroll
slow
fast
+/-
esc
set tempo
stop
About this tab version
Feel free to edit / make suggestions. My mate wrote most most of this up, enjoy it or hate it. Was this info helpful? Yes No
Scott green bass tab - Dune rats
Feel free to edit / make suggestions.
My mate wrote most most of this up, enjoy it or hate it.
Credit to K.Ryan

"At a party who's scott green...."
G|--------------------7-------------------------------------------|
D|---------------------------------------------------------------|
A|--2-22--3-33-------5-5-0---------------------------------------|
E|--------------3-33---------------------------------------------|

"It doesnt really matter just gimme gimme gimme.."
G|---------------------------------------------------------------|
D|---------------------------------------------------------------|
A|---------------------------------------------------------------|
E|-77777777-88888888---------------------------------------------|

"Has anybody here seen scott green...."
G|--------------------7-------------------------------------------|
D|---------------------------------------------------------------|
A|--2-22--3-33-------5-5-0---------------------------------------|
E|--------------3-33---------------------------------------------|

"It doesnt really matter just gimme gimme gimme.."
G|---------------------------------------------------------------|
D|---------------------------------------------------------------|
A|---------------------------------------------------------------|
E|-77777777-88888888---------------------------------------------|

"SCOOOOTTTTT..."
G|------------------------|----------------------------------------------------|
D|------------------------|----------------------------------------------------|
A|------------------------|----------------------------------------------------|
E|-77-10-10-10-33-888-(x3)|--77777777-88888888-77777777-10-10-10-10-10-10-10-10|

"Holding out for somthing to feel..."
G|---------------------------------------------------------------|
D|---------------------------------------------------------------|
A|---------------------------------------------------------------|
E|-77-10-10-10-5553333-------------------------------------------|

"Anybody here seen Scott green...."  "Has anybody.....Scott green??"
G|--------------------7------------|----------------------------------|
D|---------------------------------|----------------------------------|
A|--2-22--3-33-------5-5-0-(x3)----|--2-22--3-33----------------------|
E|--------------3-33---------------|-------------3--------------------|

"At a party who's scott green...."
G|--------------------7-------------------------------------------|
D|---------------------------------------------------------------|
A|--2-22--3-33-------5-5-0---------------------------------------|
E|--------------3-33---------------------------------------------|
Suggest correction
Creating personal tab
Creating personal tab
You can edit any tab online and save it as your Personal.

You can edit, replace or remove any tab part or add personal notes – all changes will be seen only by you.

Personal tabs can be accessed anytime from any device, even offline.
Learn more »
Give kudos to tab author, rate the tab!
1 2 3 4 5
comments
print report bad tab
guest
You may want to rate the tab now too:
select rating
Wanna post a correction for this tab? Suggest correction