Oops, an error
Loading. Please wait.

Festival Tab

46 views 6 this week
no commentswrite comment
1 2 3 4 5
2 more votes to show rating
add to favorites
launch autoscroll
font size
0
reset
how to read this tab
guitar tuner
Autoscroll
slow
fast
+/-
esc
set tempo
stop
Help us to improve Ultimate-Guitar.com Take our survey!
×
Author
Difficulty
intermediate
About this tab version
Chords, lyrics, intro and bridge tabs. Was this info helpful? Yes No
Festival - from album Ta Det Lugnt 

My favorite non-English album EVER!!! Buy it!!!  
Drew in the Zoo! Missoula MT  gandrewd@live.com
updated previous version from witmachine@yahoo.com thanks for the great start

the F#m  you can play them normal but some of them sound a little wacky try 
Swedifying some! Like with these chords(name?) or I made up:)
e|---0---|             |-2-|          |-0-|            |-2-|   
B|---2---|             |-0-|          |-2-|            |-2-|   
G|---2---|        O    |-4-|     O    |-4-|      O     |-4-|(F#m add?)  
D|---4---|        R    |-4-|     R    |-4-|      R     |-4-|   
A|---4---|             |-4-|          |-4-|            |-4-|  
E|---2(Thumb!)|        |-2(T)|        |-2(T)|          |-2-|  


*Bm7add9   or just play a regular Bm (the 9th really makes it sing tho!)
e|---5---|
B|---3---|
G|---2---|
D|---4---|
A|---2---|
E|---X---|

D(A form)
e|---5---|
B|---7---|
G|---7---|
D|---7---|
A|---5---|
E|---5---|



[Intro]
e|---4-4----4-4----5-7---12--------------------------------------------------|
B|---5-5----4-4----5-7-----12------------------------------------------------|
G|---4-4----4-4----6-8-------13----------------------------------------------|
D|-----------------------------14--------------------------------------------|
A|X--------------------------------------------------------------------------|
E|X--------------------------------------------------------------------------|

or live Intro
e|---4-4----4-4----5-7-4-----------------------------------------------------|
B|---5-5----4-4----5-7-5-----------------------------------------------------|
G|---4-4----4-4----6-8-4-----------------------------------------------------|
D|X--------------------------------------------------------------------------|
A|X--------------------------------------------------------------------------|
E|X--------------------------------------------------------------------------|

then
F#m                        E

F#m            A           E

[Verse] once
   F#m                     E
Fest-i-val                 varje dag

F#m           A            E
Festival   varenda dag     gör mig glad

      F#m                  E
Tågen går                  varje år

F#m           A            E
Tågen går  varenda år i    samma spår

     F#m                     E
Sköna ut,                  veckoslut

F#m            A            E
Du kan sova   på min arm   tills det blir ljust


break/bridge:
intro once then both...

lead guitar/keys (two times, 2nd time ending a little different make it up, think juicy meatballs!)
e|-/14(8ish times)-12-12-10-10-9-9-5-5/7-7-7-9-7-----------------------------|
B|----------------------------------------------7-7-7ish---------------------|
G|---------------------------------------------------------------------------|
D|---------------------------------------------------------------------------|
A|---------------------------------------------------------------------------|
E|---------------------------------------------------------------------------|

while
rhythm/bass plays first time through
Bm                       E

and 2nd time around
Bm       Fm     D


then: (4 times)
F#m     B  C#m   Bm7add9*           A    E  D(A form 5th fret)


[Chorus]once

F#m             B        C#min 
Allting      lunkar       på

              Bm7add9                   A            E        D(A form)
och det känns mycket mer än du och jag har lust att mäkta med

F#m             B          C#m
Eftermid-       dagen     går

              Bm7add9             A           E             D(A form)
och vi har    långt, långt kvar innan natten rullar in

F#m         B    C#m
Imorgon då blir det regn

              Bm7add9               A      E          D(A form)
Då får man    aja baja imse vimse spö för man är inne

F#m        B    C#m
Imorse var det kallt

              Bm7add9                   A         E    D(A form)  F#m
och man kan   undra vad dom undrade när du och jag har festival  

piano outro think/channel: youtube.com/watch?v=mbs64GvGgPU


/= Slide up
\= Slide down
Suggest correction
Give kudos to tab author, rate the tab!
1 2 3 4 5
comments
print report bad tab
guest
You may want to rate the tab now too:
select rating
Wanna post a correction for this tab? Suggest correction