Oops, an error
Loading. Please wait.

A View To A Kill Tab

version 1
version 1

Intro

Interactive

6,688 views 9 this week
no commentswrite comment
1 2 3 4 5
please rate
add to favorites
launch autoscroll
font size
0
reset
how to read this tab
guitar tuner
Autoscroll
slow
fast
+/-
esc
set tempo
stop
Help us to improve Ultimate-Guitar.com Take our survey!
×
Intro

Standard Tuning

     W                   H.           E  E     E  H        E  E  E   
E||-------------------|------------------8--|--8-----------8-----8--|
B||-------------------|---------------------|-----------------------|
G||--6----------------|---------------------|-----------------------|
D||-------------------|---------------------|-----------------------|
A||-------------------|---------------------|-----------------------|
E||-------------------|---------------------|-----------------------|
 
 
   E  H         E  E   E      E  H         E  E   E      E  E   E  H        E   
--10-----------10-----10--|--11-----------11-----11--|--13-----13--------------|
--------------------------|--------------------------|-------------------------|
--------------------------|--------------------------|-------------------------|
--------------------------|--------------------------|-------------------------|
--------------------------|--------------------------|-------------------------|
--------------------------|--------------------------|-------------------------|
 
 
   E  H         E  E   E      E  H         E  E   E   
--------------------------|--10-----------10-----10--|
--13-----------13-----13--|--------------------------|
--------------------------|--------------------------|
--------------------------|--------------------------|
--------------------------|--------------------------|
--------------------------|--------------------------|
 
 
   E  H         E  E   E      E  E   E  E   E   E   E   E    
--11-----------11-----11--|--13-----13-----11--13--11--13--||
--------------------------|--------------------------------||
--------------------------|--------------------------------||
--------------------------|--------------------------------||
--------------------------|--------------------------------||
--------------------------|--------------------------------||
 
 
 
 
Duration Legend
---------------
W - whole
H - half
Q - quarter
E - 8th
S - 16th
T - 32nd
X - 64th
. - note dotted
|-n-|  - n-tuplets
 

Suggest correction
Give kudos to tab author, rate the tab!
1 2 3 4 5
comments
print report bad tab
guest
You may want to rate the tab now too:
select rating
Wanna post a correction for this tab? Suggest correction