Oops, an error
Loading. Please wait.

Being Followed Bass Tab

388 views 1 this week
no commentswrite comment
1 2 3 4 5
please rate
add to favorites
launch autoscroll
font size
0
reset
guitar tuner
Autoscroll
slow
fast
+/-
esc
set tempo
stop
Help us to improve Ultimate-Guitar.com Take our survey!
×
Contributor
Difficulty
intermediate
Duran Duran - Being Followed - Bass Tab

Tabbed By zowie54@gmail.com

 (00:02)

G|----------------|
D|--5-----5-------|
A|----------------| x4
E|3-----3---3-----|

M|1 & 2 & 3 & 4 & |

 (00:09) 
 
G|----------------|--5-----5-------|--3-----3-------|
D|--5-----5------.|----------------|----------------|
A|---------------.|3-----3---3-----|1-----1---1-----| x3
E|3-----3---3-----|----------------|----------------|

M|1 & 2 & 3 & 4 & |1 & 2 & 3 & 4 & |1 & 2 & 3 & 4 & |

 (00:23) x2

G|----------------|--5-----5-------|--3-----3-------|
D|--5-----5------.|----------------|----------------|
A|---------------.|3-----3---3-----|1-----1---1-----| 
E|3-----3---3-----|----------------|----------------|

M|1 & 2 & 3 & 4 & |1 & 2 & 3 & 4 & |1 & 2 & 3 & 4 & |

G|--7-----7-------|--8-----8-------|-10----10-------|----------------|
D|----------------|----------------|----------------|----------------|
A|5-----5---5-----|6-----6---6-----|8-----8---8-----|3---3---3---3---| 
E|----------------|----------------|----------------|----------------|

M|1 & 2 & 3 & 4 & |1 & 2 & 3 & 4 & |1 & 2 & 3 & 4 & |1 & 2 & 3 & 4 & |

  (00:50)

G|-10-------------|-10-------------|--8-------------|--8-------------|
D|----------------|----------------|----------------|----------------|
A|8-----6---5-----|8-----6---5-----|6-----5---3-----|6-----5---3---6-|
E|--------------8-|--------------8-|--------------6-|----------------|

M|1 & 2 & 3 & 4 & |1 & 2 & 3 & 4 & |1 & 2 & 3 & 4 & |1 & 2 & 3 & 4 & |

G|-10-------------|-10-------------|--8-------------|--8-------------|
D|----------------|----------------|----------------|----------------|
A|8-----6---5-----|8-----6---5-----|6-----5---3-----|6-----4---3---6-|
E|--------------8-|--------------8-|--------------6-|----------------|

M|1 & 2 & 3 & 4 & |1 & 2 & 3 & 4 & |1 & 2 & 3 & 4 & |1 & 2 & 3 & 4 & |

G|-10-------------|-10-------------|--8-------------|--8-------------|
D|----------------|----------------|----------------|----------------|
A|8-----6---5-----|8-----6---5-----|6-----5---3-----|6-----5---3---6-|
E|--------------8-|--------------8-|--------------6-|----------------|

M|1 & 2 & 3 & 4 & |1 & 2 & 3 & 4 & |1 & 2 & 3 & 4 & |1 & 2 & 3 & 4 & |

G|----10-------------|
D|-------------------|
A|---8-----6---5-----| x2
E|-8-----------------|

    |1 & 2 & 3 & 4 & |

G|----8-------8---|----7-------7---|
D|----------------|----------------|
A|--6-------6-----|3-5-----3-5-----|
E|6-------6-------|----------------|

M|1 & 2 & 3 & 4 & |1 & 2 & 3 & 4 & |

  (02:21)
 
G|----------------|----------------|----------------|----------------|
D|----------------|----------------|----------------|----------------|
A|3---3---3---3---|3//////---------|2---2---2---2---|2//-------------|
E|----------------|----------------|----------------|----------------|

M|1 & 2 & 3 & 4 & |1 & 2 & 3 & 4 & |1 & 2 & 3 & 4 & |1 & 2 & 3 & 4 & |

G|----------------|----------------|----------------|----------------|
D|7---7---7---7---|7---------------|7---7---7---7---|7////////-------|
A|----------------|----------------|----------------|----------------|
E|----------------|----------------|----------------|----------------|

M|1 & 2 & 3 & 4 & |1 & 2 & 3 & 4 & |1 & 2 & 3 & 4 & |1 & 2 & 3 & 4 & |

  (02:35)

G|----------------|----------------|----------------|----------------|
D|----------------|----------------|----------------|----------------|
A|3---3-1-3---3-1-|3---3-1-3-1-3-0-|1---1-0-1---1-0-|1---1-0-1-0-1-0-|
E|----------------|----------------|----------------|----------------|

M|1 & 2 & 3 & 4 & |1 & 2 & 3 & 4 & |1 & 2 & 3 & 4 & |1 & 2 & 3 & 4 & |

G|----------------|----------------|----------------|----------------|
D|----------------|----------------|7---7-5-7---7-5-|7---7-5-7-5-7///|
A|0---0---0---0---|0---0---0---0---|----------------|----------------|
E|------3-------3-|------3---3---3-|----------------|----------------|

M|1 & 2 & 3 & 4 & |1 & 2 & 3 & 4 & |1 & 2 & 3 & 4 & |1 & 2 & 3 & 4 & |

  (02:49)
 
G|----------------|----------------|----------------|3-3-3-3---------|
D|----------------|----------------|5-5-5-5-5-5-5-5-|--------5-5-5-5-|
A|3-3-3-3-3-3-3-3-|6-6-6-6-8-8-8-8-|----------------|----------------|
E|----------------|----------------|----------------|----------------|

M|1 & 2 & 3 & 4 & |1 & 2 & 3 & 4 & |1 & 2 & 3 & 4 & |1 & 2 & 3 & 4 & |

G|----------------|----------------|----------------|----------------|
D|----------------|----------------|----------------|----------------|
A|0-0-0-0-0-0-0-0-|4-4-4-4-0-0-0-0-|----------------|4-4-4-4---------|
E|----------------|----------------|4-4-4-4-4-4-4-4-|--------4-4-4-4-|

M|1 & 2 & 3 & 4 & |1 & 2 & 3 & 4 & |1 & 2 & 3 & 4 & |1 & 2 & 3 & 4 & |

G|----------------|----------------|----------------|----------------|
D|----------------|----------------|----------------|----------------|
A|----------------|----------------|----------------|----------------|
E|3-3-3-3-3-3-3///|3-3-3-3-3-3-3///|----------------|----------------|

M|1 & 2 & 3 & 4 & |1 & 2 & 3 & 4 & |1 & 2 & 3 & 4 & |1 & 2 & 3 & 4 & |

  (03:09)

G|----------------|----------------|--5---3---------|--8---7---5---3-|
D|--5---3---------|--5---3---------|----------6---5-|----------------|
A|----------6---5-|----------6--5--|3---------------|6---------------|
E|3---------------|3---------------|----------------|----------------|

M|1 & 2 & 3 & 4 & |1 & 2 & 3 & 4 & |1 & 2 & 3 & 4 & |1 & 2 & 3 & 4 & |

G|----------------|----------------|--5---3---------|--8------10-----|
D|--5---3---------|--5---3---------|----------6---5-|----------------|
A|----------6---5-|----------6--5--|3---------------|6-----6-8-----8-|
E|3---------------|3---------------|----------------|----------------|

M|1 & 2 & 3 & 4 & |1 & 2 & 3 & 4 & |1 & 2 & 3 & 4 & |1 & 2 & 3 & 4 & |

G|----------------|----------------|--5---3---------|--8---7---6---3-|
D|--5---3---------|--5---3---------|----------6---5-|----------------|
A|----------6---5-|----------6--5--|3---------------|6---------------|
E|3---------------|3---------------|----------------|----------------|

M|1 & 2 & 3 & 4 & |1 & 2 & 3 & 4 & |1 & 2 & 3 & 4 & |1 & 2 & 3 & 4 & |

G|----------------|----------------|--5---3---------|--8------10-----|
D|--5---3---------|--5---3---------|----------6---5-|----------------|
A|----------6---5-|----------6--5--|3---------------|6-----6-8-----8-|
E|3---------------|3---------------|----------------|----------------|

M|1 & 2 & 3 & 4 & |1 & 2 & 3 & 4 & |1 & 2 & 3 & 4 & |1 & 2 & 3 & 4 & |
 
G|----------------|----------------|----------------|----------------|
D|----------------|----------------|----------------|----------------|
A|----------------|----------------|----------------|----------------|
E|3---------------|----------------|----------------|----------------|
comments
We did not receive enough feedback on this tab! Please rate:
print report bad tab
1 2 3 4 5
I want to post or [tab]
guest
You may want to rate the tab now too:
select rating
Please do not post tabs as comments. Select "correction" instead!