Oops, an error
Loading. Please wait.

Falling Down Tab

version 1
version 1

Intro

4,259 views 1 this week
no commentswrite comment
1 2 3 4 5
x 4
add to favorites
launch autoscroll
font size
0
reset
how to read this tab
guitar tuner
Autoscroll
slow
fast
+/-
esc
set tempo
stop
Help us to improve Ultimate-Guitar.com Take our survey!
×
First tab, probably not perfect but it's close. I would listen to the song while trying 
figure it out cause the timing may be off. Hope it helps.

Standard Tuning

h - Hammeron
p - Pull off
/ - Slide up Neck
\ - Slide Down Neck
x - Mute
^ - bend

Intro

-----------------------------------4h7p4---------------------|
--------4h5p4------4---------------------4-------------------|
---------------6-------------6-------------4-----------------|
-------------------------------6----------------------x--x---|
-4--4--------------------4----------------------------x--x---|
--------------------------------------------------7---x--x---|


-------------------------------------------------------------|
--12/14---12------x-x-x-x---11/13---11-----------------------|
--11/13---11------x-x-x-x---11/13---11-----------------------|
---9/11----9------x-x-x-x---11/13---11-----------------------|
------------------x-x-x-x----9/11----9-----------------------|
-------------------------------------------------------------|


Chorus Lick

--19^--------19^------------------19----18----------------|
--------17---------17---------------------------21-19-----|
---------------------------20-----------------------------|
----------------------------------------------------------|
----------------------------------------------------------|
----------------------------------------------------------|
Suggest correction
comments
print report bad tab
guest
You may want to rate the tab now too:
select rating
Wanna post a correction for this tab? Suggest correction