Oops, an error
Loading. Please wait.

Girls On Film Tab

version 1
version 1

Whole song

Interactive

18,085 views 3 this week
4 commentsread comments
1 2 3 4 5
x 6
add to favorites
launch autoscroll
font size
0
reset
how to read this tab
guitar tuner
Autoscroll
slow
fast
+/-
esc
set tempo
stop
Help us to improve Ultimate-Guitar.com Take our survey!
×
Author
-----------------------------------------------------------------------------
                           Girls on Film - Duran Duran
-----------------------------------------------------------------------------
Tabbed by:Josh Frazer
Email:this_is_skateboarding_@hotmail.com

Legend: x - Mute Note

Tuning:EADGBe

 Main Riff.

e|---5-5--3---xx-x---10-10--7---xx-x---5-5--3---xx-x---10--10-7------------|
B|---5-5--3---xx-x---10-10--7---xx-x---5-5--3---xx-x---10--10-7------------|
G|-------------------------------------------------------------------------|
D|-------------------------------------------------------------------------|
A|-------------------------------------------------------------------------|
E|-------------------------------------------------------------------------|

 Pre-Chorus

e|---3--555--33-5----------------------------------------------------------|
B|---3--555--33-5----------------------------------------------------------|
G|-------------------------------------------------------------------------|
D|-------------------------------------------------------------------------|
A|-------------------------------------------------------------------------|
E|-------------------------------------------------------------------------|

 Chorus

e|-------------------------------------------------------------------------|
B|-------------------------------------------------------------------------|
G|-------------------------------------------------------------------------|
D|---7----5----3-----------------------------------------------------------|
A|---5----3----1------------------------------7----5----3------------------|
E|--------------------------------------------5----3----1------------------|
Suggest correction
comments
print report bad tab
4 comments total. Showing first comments.
0 reply
big duck 10 May 26, 2007 07:47 AM

maybe its just a constantly wrong typo?

+1 reply
sam.burf 75 Oct 27, 2007 11:42 AM

it doesnt go 10----10----7--
10----10----7-- it goes 10---10---8
10---10---8

+1 reply
TheBrit 10 Feb 11, 2010 06:28 AM

i think that the chorus goes
------------
------------
14----9----7
14----9----7
12----7----5
------------

-----------
-----------
9----5----2
9----5----2
7----3----0
-----------
Yeah i'm pretty sure thats right. :)

guest
You may want to rate the tab now too:
select rating
Wanna post a correction for this tab? Suggest correction