Oops, an error
Loading. Please wait.

Girls On Film Tab

version 2
version 2

Whole song

Interactive

4,822 views 57 this week
no commentswrite comment
1 2 3 4 5
x 6
add to favorites
launch autoscroll
font size
0
reset
how to read this tab
guitar tuner
×
Best way to learn
"Girls On Film"
Autoscroll
slow
fast
+/-
esc
set tempo
stop
Difficulty
novice
Girls On Film

Tuning: Standard E,B,G,D,A,E

[Verse]                                                
E|-5-5-3--10-10-8--5-5-3--10--10-8-|-x-8-8-8-x-8-|
B|-5-5-3--10-10-8--5-5-3--10--10-8-|-x-8-8-8-x-8-|      Play 2nd part right before chorus:
G|---------------------------------|-------------|
D|---------------------------------|-------------|
A|---------------------------------|-------------|
E|---------------------------------|-------------|

[Chorus]
E|-------------5---------------------0-----------|
B|-------------5---------------------0-----------|
G|-14-12-7-7-7-5-7-7-7-7-7-7-5-2-2-2-0-2-2-2-2-2-|
D|-14-12-7-7-7-5-7-7-7-7-7-7-5-2-2-2-0-2-2-2-2-2-|
A|-12-10-5-5-5-5-5-5-5-5-5-5-3-0-0-0-0-0-0-0-0-0-|
E|-----------------------------------------------|

[Verse]                                                
E|-5-5-3--10-10-8--5-5-3--10--10-8-|-x-8-8-8-x-8-|
B|-5-5-3--10-10-8--5-5-3--10--10-8-|-x-8-8-8-x-8-|      Play 2nd part right before chorus:
G|---------------------------------|-------------|
D|---------------------------------|-------------|
A|---------------------------------|-------------|
E|---------------------------------|-------------|

[Chorus]
E|-------------5---------------------0-----------|
B|-------------5---------------------0-----------|
G|-14-12-7-7-7-5-7-7-7-7-7-7-5-2-2-2-0-2-2-2-2-2-|
D|-14-12-7-7-7-5-7-7-7-7-7-7-5-2-2-2-0-2-2-2-2-2-|
A|-12-10-5-5-5-5-5-5-5-5-5-5-3-0-0-0-0-0-0-0-0-0-|
E|-----------------------------------------------|

[Bridge]/(Drum Solo)
(Small Guitar Solo using the Verse Chords both above and below the 12th fret)

[Verse]                                                
E|-5-5-3--10-10-8--5-5-3--10--10-8-|-x-8-8-8-x-8-|
B|-5-5-3--10-10-8--5-5-3--10--10-8-|-x-8-8-8-x-8-|      Play 2nd part right before chorus:
G|---------------------------------|-------------|
D|---------------------------------|-------------|
A|---------------------------------|-------------|
E|---------------------------------|-------------|

[Chorus]
E|-------------5---------------------0-----------|
B|-------------5---------------------0-----------|
G|-14-12-7-7-7-5-7-7-7-7-7-7-5-2-2-2-0-2-2-2-2-2-|
D|-14-12-7-7-7-5-7-7-7-7-7-7-5-2-2-2-0-2-2-2-2-2-|
A|-12-10-5-5-5-5-5-5-5-5-5-5-3-0-0-0-0-0-0-0-0-0-|
E|-----------------------------------------------|

************************************

| x  Dead note

************************************
Suggest correction
comments
print report bad tab
guest
You may want to rate the tab now too:
select rating
Wanna post a correction for this tab? Suggest correction