Oops, an error
Loading. Please wait.

Leave A Light On Bass Tab

350 views 3 this week
no commentswrite comment
1 2 3 4 5
3 more votes to show rating
add to favorites
launch autoscroll
font size
0
reset
guitar tuner
Autoscroll
slow
fast
+/-
esc
set tempo
stop
Help us to improve Ultimate-Guitar.com Take our survey!
×
Author
Difficulty
Duran Duran - Leave a Light on - Bass Tab

Tabbed by zowie54@gmail.com

  (00:25)

G|----------------|----------------|----------------|----------------|
D|----------------|----------------|----------------|----------------|
A|5-----5-------x-|8-----8-------x-|3-----3-------x-|5-----5-------x-| x3
E|----------------|----------------|----------------|----------------|

M|1 & 2 & 3 & 4 & |1 & 2 & 3 & 4 & |1 & 2 & 3 & 4 & |1 & 2 & 3 & 4 & |

   (00:56)  (02:08)

G|--------------5-|--------------5-|7-----7--5-7-8/9|--------------5-|
D|5-----5---3-5---|7-----7---5-7---|----------------|7-----7---5-7---|
A|----------------|----------------|----------------|----------------|
E|----------------|----------------|----------------|----------------|

M|1 & 2 & 3 & 4 & |1 & 2 & 3 & 4 & |1 & 2 & 3 & 4 & |1 & 2 & 3 & 4 & |

G|--------------5-|--------------5-|7-----7------7/9|5---------------|
D|5-----5---3-5---|7-----7---5-7---|----------------|----------------|
A|----------------|----------------|----------------|----------------|
E|----------------|----------------|----------------|----------------|

M|1 & 2 & 3 & 4 & |1 & 2 & 3 & 4 & |1 & 2 & 3 & 4 & |1 & 2 & 3 & 4 & |

   (01:17)

G|----------------|----------------|----------------|----------------|
D|----------------|----------------|----------------|----------------|
A|5-----5-------x-|8-----8-------x-|3-----3-------x-|5-----5---------| 
E|----------------|----------------|----------------|----------5-----|

M|1 & 2 & 3 & 4 & |1 & 2 & 3 & 4 & |1 & 2 & 3 & 4 & |1 & 2 & 3 & 4 & |

   (01.27) 

G|----------------|----------------|----------------|----------------|
D|----------------|----------------|----------------|----------------|
A|5-----5-------x-|8-----8-------x-|3-----3-------x-|5-----5-------x-| x2
E|----------------|----------------|----------------|----------------|

M|1 & 2 & 3 & 4 & |1 & 2 & 3 & 4 & |1 & 2 & 3 & 4 & |1 & 2 & 3 & 4 & | 

G|----------------|----------------|----------------|----------------|
D|----------------|----------------|----------------|----------------|
A|5-----5-------x-|8-----8-------x-|3-----3-------x-|5-----5---------| 
E|----------------|----------------|----------------|----------5-----|

M|1 & 2 & 3 & 4 & |1 & 2 & 3 & 4 & |1 & 2 & 3 & 4 & |1 & 2 & 3 & 4 & |

G|----------------|----------------|----------------|----------------|
D|----------------|----------------|----------------|----------------|
A|5-----5-------x-|8-----8-------x-|3-----3-------x-|5-----5-------x-| 
E|----------------|----------------|----------------|----------------|

M|1 & 2 & 3 & 4 & |1 & 2 & 3 & 4 & |1 & 2 & 3 & 4 & |1 & 2 & 3 & 4 & | 

    (02:28)

G|----------------|----------------|----------------|----------------|
D|----------------|----------------|----------------|----------------|
A|5-----5-------x-|8-----8-------x-|3-----3-------x-|5-----5---------| 
E|----------------|----------------|----------------|----------5-----|

M|1 & 2 & 3 & 4 & |1 & 2 & 3 & 4 & |1 & 2 & 3 & 4 & |1 & 2 & 3 & 4 & |

G|----------------|----------------|----------------|----------------|
D|----------------|----------------|----------------|----------------|
A|5-----5-------x-|8-----8-------x-|3-----3-------x-|5-----5-------x-| 
E|----------------|----------------|----------------|----------------|

M|1 & 2 & 3 & 4 & |1 & 2 & 3 & 4 & |1 & 2 & 3 & 4 & |1 & 2 & 3 & 4 & | 

G|----------------|----------------|----------------|----------------|
D|----------------|----------------|----------------|----------------|
A|5-----5-------x-|8-----8-------x-|3-----3-------x-|5-----5---------| 
E|----------------|----------------|----------------|----------0---2-|

M|1 & 2 & 3 & 4 & |1 & 2 & 3 & 4 & |1 & 2 & 3 & 4 & |1 & 2 & 3 & 4 & |

   (02:59)
 
G|----------------|----------------|----------------|----------------|
D|----------------|----------------|----------------|----------------|
A|--------------0-|1-----1-------1/|8-----8-------8-|3-----3-------3-|
E|3-----3-----3---|----------------|----------------|----------------|

M|1 & 2 & 3 & 4 & |1 & 2 & 3 & 4 & |1 & 2 & 3 & 4 & |1 & 2 & 3 & 4 & |

G|----------------|----------------|----------------|----------------|
D|----------------|----------------|----------------|----------------|
A|--------------0-|1-----1-------1/|8-----8-------8-|6-----6-------x-|
E|3-----3-----3---|----------------|----------------|----------------|

M|1 & 2 & 3 & 4 & |1 & 2 & 3 & 4 & |1 & 2 & 3 & 4 & |1 & 2 & 3 & 4 & |


G|----------------|----------------|----------------|----------------|
D|----------------|----------------|----------------|----------------|
A|6---------------|-----x5-------x-|8-----8-------x-|3-----3-------x-|
E|----------------|----------------|----------------|----------------|

M|1 & 2 & 3 & 4 & |1 & 2 & 3 & 4 & |1 & 2 & 3 & 4 & |1 & 2 & 3 & 4 & |

G|----------------|----------------|----------------|----------------|
D|----------------|----------------|----------------|----------------|
A|5-----5---------|----------------|----------------|----------------|
E|----------------|----------------|----------------|----------------|

M|1 & 2 & 3 & 4 & |1 & 2 & 3 & 4 & |1 & 2 & 3 & 4 & |1 & 2 & 3 & 4 & |

   (03:32)

G|----------------|----------------|----------------|----------------|
D|----------------|----------------|----------------|----------------|
A|5-----5-------x-|8-----8-------x-|3-----3-------x-|5-----5-------x-| 
E|----------------|----------------|----------------|----------------|

M|1 & 2 & 3 & 4 & |1 & 2 & 3 & 4 & |1 & 2 & 3 & 4 & |1 & 2 & 3 & 4 & | 

G|----------------|----------------|----------------|----------------|
D|----------------|----------------|----------------|----------------|
A|5-----5-------x-|8-----8-------x-|3-----3-------x-|5-----5---------| 
E|----------------|----------------|----------------|----------5-----|

M|1 & 2 & 3 & 4 & |1 & 2 & 3 & 4 & |1 & 2 & 3 & 4 & |1 & 2 & 3 & 4 & |

G|----------------|----------------|----------------|----------------|
D|----------------|----------------|----------------|----------------|
A|5-----5-------x-|8-----8-------x-|3-----3-------x-|5-----5-------x-| 
E|----------------|----------------|----------------|----------------|

M|1 & 2 & 3 & 4 & |1 & 2 & 3 & 4 & |1 & 2 & 3 & 4 & |1 & 2 & 3 & 4 & |

G|----------------|----------------|----------------|----------------|
D|----------------|----------------|----------------|----------------|
A|5-----5-------x-|8-----8-------x-|3-----3-------x-|5-----5---------| 
E|----------------|----------------|----------------|----------5-----|

M|1 & 2 & 3 & 4 & |1 & 2 & 3 & 4 & |1 & 2 & 3 & 4 & |1 & 2 & 3 & 4 & |

G|----------------|----------------|----------------|----------------|
D|----------------|----------------|----------------|----------------|
A|5-----5-------x-|8-----8-------x-|3---------------|--5-------------| 
E|----------------|----------------|----------------|----------------|

M|1 & 2 & 3 & 4 & |1 & 2 & 3 & 4 & |1 & 2 & 3 & 4 & |1 & 2 & 3 & 4 & 
Suggest correction
Give kudos to tab author, rate the tab!
1 2 3 4 5
comments
print report bad tab
guest
You may want to rate the tab now too:
select rating
Wanna post a correction for this tab? Suggest correction