Oops, an error
Loading. Please wait.

New Moon On Monday Bass Tab

version 2
version 2

Whole song

Interactive

381 views 1 this week
no commentswrite comment
1 2 3 4 5
3 more votes to show rating
add to favorites
launch autoscroll
font size
0
reset
guitar tuner
Autoscroll
slow
fast
+/-
esc
set tempo
stop
Help us to improve Ultimate-Guitar.com Take our survey!
×
Author
-----------------------------------------------------------------------------
                      NEW MOON ON MONDAY - Duran Duran
-----------------------------------------------------------------------------

Tabbed by: Matt Broback
E-mail: 37hambone@gmail.com

Tuning: E A D G

p = pop note
. = accent note
s = sixteenth note
x = muted note

INTRO    x4
|----------|
|:--------:|
|:--------:|
|----------|


VERSE 1
|-----------|-----------|-----------|-----------|
|--.--------|-----------|--.--------|-----------|
|3-03-xx-3--|--.--------|3-03-xx-3--|--.--------|
|-----------|5-05-xx-5--|-----------|5-05-xx-5--|

         p          p
|--------5--|----------|--------|---------|
|--.--------|-------7--|--------|---------|
|3-03-0h3---|--.-------|---2-3-5|--.7-75-2|
|-----------|5-05-05---|3-------|0-0-0----|

         p           p           p           p p
|--------5--|-----------|--------5--|-----------|
|--.--------|--------7--|--.--------|--------7-7|
|3-03-0h3---|--.--------|3-03-0h3---|--.--------|
|-----------|5-05-0h5---|-----------|5-05-0h5---|

         p           p
|--------5--|-----------|--------|---------|
|--.--------|--------7--|--------|---------|
|3-03-0h3---|--.--------|---2-3-5|--.7-75-2|
|-----------|5-05-0h5---|3-------|0-0-0----|

         p           p           p           p p
|--------5--|-----------|--------5--|-----------|
|--.--------|--------7--|--.--------|--------7-7|
|3-03-0h3---|--.--------|3-03-0h3---|--.--------|
|-----------|5-05-0h5---|-----------|5-05-0h5---|

         p
|--------5--|----------|------------|------------|
|--.--------|----------|------------|---------3-4|
|3-03-0h3---|--.--.----|--ssss------|--ssss------|
|-----------|5-05-05544|3-33333-3321|0-00000-1-2-|


CHORUS 1
|------------|---------7-8|------------|------------|
|---------5-6|------------|--ssss------|--ssss------|
|--ssss------|--ssss--5-6-|7-77777-7755|3-33333-----|
|3-33333-3-4-|5-55555-----|------------|--------1121|

|------------|---------7-8|------------|--------------|
|---------5-6|------------|--ssss------|--ssss--ssss--|
|--ssss------|--ssss--5-6-|7-77777-7755|3-33333-33333-|
|3-33333-3-4-|5-55555-----|------------|-------------2|

|------------|---------7-8|------------|------------|
|---------5-6|------------|--ssss------|--ssss------|
|--ssss------|--ssss--5-6-|7-77777-7755|3-33333-----|
|3-33333-3-4-|5-55555-----|------------|--------1122|

|------------|---------7-8|------------|-------------|
|---------5-6|------------|--ssss------|--ssss--ssss-|
|--ssss------|--ssss--5-6-|7-77777-7755|3-33333-33332|
|3-33333-3-4-|5-55555-----|------------|-------------|


BRIDGE 1
|--------|--------|---------|----------|
|--------|--------|--.------|--.--.----|
|3-------|--------|3-03----0|3-03-3----|
|--------|3-------|---------|------1120|


VERSE 2
|-----------|-----------|-----------|-----------|
|--.--------|-----------|--.--------|-----------|
|3-03-xx-3--|--.--------|3-03-xx-3--|--.--------|
|-----------|5-05-xx-5--|-----------|5-05-xx-5--|

         p          p
|--------5--|----------|--------|---------|
|--.--------|-------7--|--------|---------|
|3-03-0h3---|--.-------|---2-3-5|--.7-75-2|
|-----------|5-05-05---|3-------|0-0-0----|

         p           p           p           p p
|--------5--|-----------|--------5--|-----------|
|--.--------|--------7--|--.--------|--------7-7|
|3-03-0h3---|--.--------|3-03-0h3---|--.--------|
|-----------|5-05-0h5---|-----------|5-05-0h5---|

         p
|--------5--|----------|------------|------------|
|--.--------|----------|------------|---------3-4|
|3-03-0h3---|--.--.----|--ssss------|--ssss------|
|-----------|5-05-05544|3-33333-3321|0-00000-1-2-|


CHORUS 2
|------------|---------7-8|------------|-------------|
|---------5-6|------------|--ssss------|--ssss--.----|
|--ssss------|--ssss--5-6-|7-77777-7755|3-33333-3----|
|3-33333-3-4-|5-55555-----|------------|---------1122|

|------------|---------7-8|------------|--------------|
|---------5-6|------------|--ssss------|--ssss--ssss--|
|--ssss------|--ssss--5-6-|7-77777-7755|3-33333-33333-|
|3-33333-3-4-|5-55555-----|------------|-------------2|

|------------|---------7-8|------------|------------|
|---------5-6|------------|--ssss------|--ssss------|
|--ssss------|--ssss--5-6-|7-77777-7755|3-33333-----|
|3-33333-3-4-|5-55555-----|------------|--------1122|

|------------|---------7-8|------------|--------------|
|---------5-6|------------|--ssss------|--ssss--ssss--|
|--ssss------|--ssss--5-6-|7-77777-7755|3-33333-333332|
|3-33333-3-4-|5-55555-----|------------|--------------|


BRIDGE 2
|--------|--------|--------|---------|
|-------.|-------.|--------|----.----|
|3------3|-------2|3-3--3-.|3-3-3----|
|--------|3-------|-------3|-----1120|

    .          .          .          .
|---5---55-|---3---33-|---5---55-|---5---55-|
|--.-..----|--.-..----|--.-..----|--.-..----|
|3-3-33----|1-1-11----|3-3-33----|3-3-33----|
|----------|----------|----------|----------|

              .
|---.-----|---3---3-|------------|------------|
|---5---5-|--.-..---|--ssss------|--ssss------|
|--.-..---|1-1-11---|3-33333-333-|3-33333-----|
|3-3-33---|---------|------------|--------1122|


OUTRO CHORUS
|------------|---------7-8|------------|------------|
|---------5-6|------------|--ssss------|--ssss------|
|--ssss------|--ssss--5-6-|7-77777-7755|3-33333-----|
|3-33333-3-4-|5-55555-----|------------|--------1120|

|------------|---------7-8|------------|--------------|
|---------5-6|------------|--ssss------|--ssss--ssss--|
|--ssss------|--ssss--5-6-|7-77777-7755|3-33333-33333-|
|3-33333-3-4-|5-55555-----|------------|-------------2|

|------------|---------7-8|------------|-------------|
|---------5-6|------------|--ssss------|--ssss--.----|
|--ssss------|--ssss--5-6-|7-77777-7755|3-33333-3----|
|3-33333-3-4-|5-55555-----|------------|---------1120|

|------------|---------7-8|------------|------------|
|---------5-6|------------|--ssss------|--ssss------|
|--ssss------|--ssss--5-6-|7-77777-7755|3-33333-----|
|3-33333-3-4-|5-55555-----|------------|--------1120|

|-------------|---------7-8|------------|------------|
|:---------5-6|------------|--ssss------|--ssss------|
|:--ssss------|--ssss--5-6-|7-77777-7755|3-33333-----|
|-3-33333-3-4-|5-55555-----|------------|--------1120|

|------------|---------7-8|------------|-------------|
|---------5-6|------------|--ssss--55--|--ssss------:|
|--ssss------|--ssss--5-6-|7-77777---77|3-33333-----:|
|3-33333-3-4-|5-55555-----|------------|--------1120-|
Suggest correction
Give kudos to tab author, rate the tab!
1 2 3 4 5
comments
print report bad tab
guest
You may want to rate the tab now too:
select rating
Wanna post a correction for this tab? Suggest correction