Oops, an error
Loading. Please wait.

Nite Runner Bass Tab

479 views 3 this week
no commentswrite comment
1 2 3 4 5
please rate
add to favorites
launch autoscroll
font size
0
reset
guitar tuner
Autoscroll
slow
fast
+/-
esc
set tempo
stop
Help us to improve Ultimate-Guitar.com Take our survey!
×
Difficulty
novice
Tabbed by: GopherMan
Album: Red Carpet Massacre
info-s=slap

Intro
G---------------|
D---------------|
A--s2---s2------|s2
E---------------|

Verse
G------------------|
D------------------|
A------2-2-    X16-|
E-4-4-4---2--------|

CHORUS
G-------------3--4--------------3--4--------------3--4--------------3--4--|
D---------4--6----4---------4--6----4---------4--6----4---------4--6----4-|
A-----4--6--------------4--6--------------4--6--------------4--6----------|
E-4--7--------------4--7--------------4--7--------------4--7--------------|

BRIDGE
G--------------- ----------------3--4---------------3--4--|
D--------------- ------------4--6----4----------4--6----4-|
A------2-2----X8 ----4--6---------------4--6--------------|
E-4-4-4---2----- ----4--7---------------4--7--------------|

VERSE
G------------------|
D------------------|
A------2-2-    X16-|
E-4-4-4---2--------|

CHORUS
G-------------3--4--------------3--4--------------3--4--------------3--4--|
D---------4--6----4---------4--6----4---------4--6----4---------4--6----4-|
A-----4--6--------------4--6--------------4--6--------------4--6----------|
E-4--7--------------4--7--------------4--7--------------4--7--------------|

BRIDGE
G--------------- ----------------3--4---------------3--4--|
D--------------- ------------4--6----4----------4--6----4-|
A------2-2----X8 --------4--6---------------4--6----------|
E-4-4-4---2----- ----4--7---------------4--7--------------|

TIMBALAND SECTION (SORRY TO CALL IT THIS)
G-------------------------------------------------------------|
D----------------6-6-6-6-6-6-6-6---------------6-6-6-6--------|
A-7-7-7-7-7-7-7-7---------------7-7-7-7-7-7-7-7-------6-6-6-6-|
E-------------------------------------------------------------|

BRIDGE 2
G-----------------------------------------|
D-----------------------------------------|
A------s2------2-2--------2-2--------2-2--|
E-4-4-4--2--4-4---2--4-4-4---2--4-4-4---2-|

VERSE
G------------------|
D------------------|
A------2-2-    X14-|
E-4-4-4---2--------|
Suggest correction
Give kudos to tab author, rate the tab!
1 2 3 4 5
comments
print report bad tab
guest
You may want to rate the tab now too:
select rating
Wanna post a correction for this tab? Suggest correction