Oops, an error
Loading. Please wait.

Rio Bass Tab

version 3
version 3

Whole song

Interactive

2,136 views 15 this week
no commentswrite comment
1 2 3 4 5
excellent!
x 4
add to favorites
launch autoscroll
font size
0
reset
guitar tuner
Tab Pro tools
  • play this tab
  • loop segment
  • change instrument
  • show fretboard
  • metronome
×
Best way to learn
"Rio"
Autoscroll
slow
fast
+/-
esc
set tempo
stop
Difficulty
advanced
Duran Duran Rio
~~~~~~~~~~~~~~~

Tab by Ken v2

repeat all as needed

------------------||----------------------5--------|
------------5-6-7-*|-------7----------x-5----5---5-|
----x-7-x-5-------*|---x-7----7---7-3----------3---|
--0---------------||-5----------5------------------|

------------------||-------6--------------5--------|
------------5-6-7-*|---x-6----6---6---x-5----5---5-|
----x-7-x-5-------*|-4----------4---3----------3---|
--0---------------||-------------------------------|

--------------------||
--------------------||
--------------------||
-0===========-12/---||
 >

-----------------------------------------------------|-----------|
-2--x-2---------------2-x-0-x---(0)--0---------------|-----4---5-|
---------------2--x-2-----.---2--------2-x-3-x-2-(0)-|-----------|
---------0-3-4---------------------------------------|-0-2---3---|

-----------------------------------------------------|-----------||
-2--x-2---------------2-x-0-x---(0)--0---------------|-----------*|
---------------2--x-2-----.---2--------2-x-3-x-2-(0)-|-0---------*|
---------0-3-4---------------------------------------|---x-2-3-3-||

---------------------------------------------------------------------------|
---------------x-2-3-4---x-4-3-------------------------x-2-3-4---x-4-3-----|
-4---x-4-2-0-------------------0---x-2-3-4---x-4-2-0-------------------0---|
---------------------------------------------------------------------------|

-----------------------------------------------------------------------------------------|
-----------x-2-3-4---x-4-3-------------------------x-2-3-4---x-4-3-----------------------|
-x-2-3-4-------------------0---x-2-3-4---x-2-3-4-------------------0---x-2-3-4---x-2-x-3-|
-----------------------------------------------------------------------------------------|

                                           | break
||---x-6-x-4-------------------------------------2----------s--------||
|*-----------x-6---6---x-4-x-2---------------2-4---4------33/4-4-5-6-*|
|*-4-------------4-------------x-4---4-(0)-4---------(4)-------------*|
||-------------------2-------------2---------------------------------||


---------------------------------------|
---------------------------------------|
-----------------4-4-4-4-4-4-4////////-|
-5-5-5-5-5-5-5-5-----------------------|
 . . . . . . . . . . . . . .
comments
print report bad tab
I want to post or [tab]
guest
You may want to rate the tab now too:
select rating
Please do not post tabs as comments. Select "correction" instead!