Oops, an error
Loading. Please wait.

Rio bass

version 4
version 4

Whole song

Interactive

148 views 9 this week
no commentswrite comment
1 2 3 4 5
x 3
add to favorites
×
Save as Personal and add changes to this tab that will be seen only by you. Learn more ›
×
You can save this tab as Personal to edit and correct it or add notes. All changes will be seen only by you. Learn more »
launch autoscroll
font size
0
reset
guitar tuner
backing track
0:00
0:00
edit
Autoscroll
slow
fast
+/-
esc
set tempo
stop
Author
Difficulty
About this tab version
Includes all dead notes and slapped notes. Was this info helpful? Yes No
https://www.youtube.com/watch?v=oxwwgZWAbG0&index=12&list=WL - Isolated Bass Track

[Intro] 
(Bass starts at 00:10)
   E                   E                   E                   E
G|-------------------|-------------------|-------------------|-------------------|
D|-----------x-5-6-7-|-----------x-5-6-7-|-----------x-5-6-7-|-----------x-5-6-7-|
A|-----7-x-5---------|-----7-x-5---------|-----7-x-5---------|-----7-x-5---------|
E|-0-0---------------|-0-0---------------|-0-0---------------|-0-0---------------|

[Verse]
   E                   E                   A                   C
G|-------------------|-------------------|-------------------|---------5-x-------|
D|-----------x-5-6-7-|-----------x-5-6-7-|---------7-x-------|-----5-x-----5---5-|
A|-----7-x-5---------|-----7-x-5---------|-----7-x-----7---7-|-3-3-----------3---|
E|-0-0---------------|-0-0---------------|-5-5-----------5---|-------------------|

   E                   E                   C#                  C
G|-------------------|-------------------|---------6-x-------|---------5-x-------|
D|-----------x-5-6-7-|-----------x-5-6-7-|-----6-x-----6---6\|-----5-x-----5---5-|
A|-----7-x-5---------|-----7-x-5---------|-4-4-----------4---|-3-3-----------3---|
E|-0-0---------------|-0-0---------------|-------------------|-------------------|

   E                   E                   A                   C
G|-------------------|-------------------|-------------------|---------5-x-------|
D|-----------x-5-6-7-|-----------x-5-6-7-|---------7-x-------|-----5-x-----5---5-|
A|-----7-x-5---------|-----7-x-5---------|-----7-x-----7---7-|-3-3-----------3---|
E|-0-0---------------|-0-0---------------|-5-5-----------5---|-------------------|

   E                   E                   C#                  C
G|-------------------|-------------------|---------6-x-------|---------5-x-------|
D|-----------x-5-6-7-|-----------x-5-6-7-|-----6-x-----6---6\|-----5-x-----5---5-|
A|-----7-x-5---------|-----7-x-5---------|-4-4-----------4---|-3-3-----------3---|
E|-0-0---------------|-0-0---------------|-------------------|-------------------|

   E                   E                   A                   C
G|-------------------|-------------------|-------------------|---------5-x-------|
D|-----------x-5-6-7-|-----------x-5-6-7-|---------7-x-------|-----5-x-----5---5-|
A|-----7-x-5---------|-----7-x-5---------|-----7-x-----7---7-|-3-3-----------3---|
E|-0-0---------------|-0-0---------------|-5-5-----------5---|-------------------|

   E                   E                   C#                  C                   
G|-------------------|-------------------|---------6-x-------|---------5-x-------|
D|-----------x-5-6-7-|-----------x-5-6-7-|-----6-x-----6---6\|-----5-x-----5---5-|
A|-----7-x-5---------|-----7-x-5---------|-4-4-----------4---|-3-3-----------3---|
E|-0-0---------------|-0-0---------------|-------------------|-------------------|

                                                (This part slides into the chorus)
G|-------------------------------------------------------------------------------|
D|-------------------------------------------------------------------------------|
A|----------------------------------------------------------------------------7\-|
E|-0-----------------------------------------------------------------------------|

[Chorus] 
   E                 B                 D                 A      
G|-----------------|-----------------|-----------------|-------------------------|
D|-----------------|-------2-x-0-----|-----------------|----------4---5----------|
A|-7-x-7---x-----0-|-2-x-2-------2-2-|-5---x-2-x-3-x-2-|-0-x---------------------|
E|-----------2-3---|-----------------|-----------------|------0-2---3------------|
                                                                s p s p                            
  E                  B                 D                 A                     
G|-----------------|-----------------|-----------------|-------------------------|
D|-----------------|-------2-x-0-----|-----------------|-------------------------|
A|-7-x-7--x-----0--|-2-x-2-------2-2-|-5---x-2-x-3-x-2-|-0-x-0-------------------|
E|----------2-3----|-----------------|-----------------|-------2-2-3-3-----------|

  E                  B                 D                 A 
G|-----------------|-----------------|-----------------|-------------------------|
D|-----------------|-------2-x-0-----|-----------------|----------4---5----------|
A|-7-x-7---x-----0-|-2-x-2-------2-2-|-5-x-x-2-x-3-x-2-|-0-x---------------------|
E|-----------2-3---|-----------------|-----------------|------0-2---3------------|
                                                                s p s p                                  
  E                  B                 D                 A           
G|-----------------|-----------------|-----------------|-------------------------|
D|-----------------|-------2-x-0-----|-----------------|-------------------------|
A|-7-x-7--x-----0--|-2-x-2-------2-2-|-5---x-2-x-3-x-2-|-0-x-0-------------------|
E|----------2-3----|-----------------|-----------------|-------2-2-3-3-----------|

[Verse]
   E                   E                   A                   C
G|-------------------|-------------------|-------------------|---------5-x-------|
D|-----------x-5-6-7-|-----------x-5-6-7-|---------7-x-------|-----5-x-----5---5-|
A|-----7-x-5---------|-----7-x-5---------|-----7-x-----7---7-|-3-3-----------3---|
E|-0-0---------------|-0-0---------------|-5-5-----------5---|-------------------|

   E                   E                   C#                  C
G|-------------------|-------------------|---------6-x-------|---------5-x-------|
D|-----------x-5-6-7-|-----------x-5-6-7-|-----6-x-----6---6\|-----5-x-----5---5-|
A|-----7-x-5---------|-----7-x-5---------|-4-4-----------4---|-3-3-----------3---|
E|-0-0---------------|-0-0---------------|-------------------|-------------------|

   E                   E                   A                   C
G|-------------------|-------------------|-------------------|---------5-x-------|
D|-----------x-5-6-7-|-----------x-5-6-7-|---------7-x-------|-----5-x-----5---5-|
A|-----7-x-5---------|-----7-x-5---------|-----7-x-----7---7-|-3-3-----------3---|
E|-0-0---------------|-0-0---------------|-5-5-----------5---|-------------------|

   E                   E                   C#                  C
G|-------------------|-------------------|---------6-x-------|---------5-x-------|
D|-----------x-5-6-7-|-----------x-5-6-7-|-----6-x-----6---6\|-----5-x-----5---5-|
A|-----7-x-5---------|-----7-x-5---------|-4-4-----------4---|-3-3-----------3---|
E|-0-0---------------|-0-0---------------|-------------------|-------------------|

   E                   E                   A                   C
G|-------------------|-------------------|-------------------|---------5-x-------|
D|-----------x-5-6-7-|-----------x-5-6-7-|---------7-x-------|-----5-x-----5---5-|
A|-----7-x-5---------|-----7-x-5---------|-----7-x-----7---7-|-3-3-----------3---|
E|-0-0---------------|-0-0---------------|-5-5-----------5---|-------------------|

   E                   E                   C#                  C                   
G|-------------------|-------------------|---------6-x-------|---------5-x-------|
D|-----------x-5-6-7-|-----------x-5-6-7-|-----6-x-----6---6\|-----5-x-----5---5-|
A|-----7-x-5---------|-----7-x-5---------|-4-4-----------4---|-3-3-----------3---|
E|-0-0---------------|-0-0---------------|-------------------|-------------------|

                                                (This part slides into the chorus)
G|-------------------------------------------------------------------------------|
D|-------------------------------------------------------------------------------|
A|----------------------------------------------------------------------------7\-|
E|-0-----------------------------------------------------------------------------|
   s

[Chorus] 
   E                 B                 D                 A      
G|-----------------|-----------------|-----------------|-------------------------|
D|-----------------|-------2-x-0-----|-----------------|----------4---5----------|
A|-7-x-7---x-----0-|-2-x-2-------2-2-|-5---x-2-x-3-x-2-|-0-x---------------------|
E|-----------2-3---|-----------------|-----------------|------0-2---3------------|
                                                                s p s p                           
  E                  B                 D                 A                     
G|-----------------|-----------------|-----------------|-------------------------|
D|-----------------|-------2-x-0-----|-----------------|-------------------------|
A|-7-x-7--x-----0--|-2-x-2-------2-2-|-5---x-2-x-3-x-2-|-0-x-0-------------------|
E|----------2-3----|-----------------|-----------------|-------2-2-3-3-----------|

  E                  B                 D                 A 
G|-----------------|-----------------|-----------------|-------------------------|
D|-----------------|-------2-x-0-----|-----------------|----------4---5----------|
A|-7-x-7---x-----0-|-2-x-2-------2-2-|-5-x-x-2-x-3-x-2-|-0-x---------------------|
E|-----------2-3---|-----------------|-----------------|------0-2---3------------|
                                                                s p s p                             
  E                  B                 D                 A           
G|-----------------|-----------------|-----------------|-------------------------|
D|-----------------|-------2-x-0-----|-----------------|-------------------------|
A|-7-x-7--x-----0--|-2-x-2-------2-2-|-5---x-2-x-3-x-2-|-0-x-0-------------------|
E|----------2-3----|-----------------|-----------------|-------2-2-3-0-----------|

[Bridge] 
(Listen to the isolated bass track to get the rhythm down.)
   C#            A           F#            A               
G|-------------|-----------|-------------|---------------|
D|-------------|-----x-2-3-|-4-x---x-4-3-|---------------|
A|-4-x-x-x-3-2-|-0-x-------|-------------|-0-x---x-2-3-4-|
E|-------------|-----------|-------------|---------------|

   C#            A           F#            A               
G|-------------|-----------|-------------|---------------|
D|-------------|-----x-2-3-|-4-x---x-4-3-|---------------|
A|-4-x-x-x-3-2-|-0-x-------|-------------|-0-x---x-2-3-4-|
E|-------------|-----------|-------------|---------------|

   F#                  A                                     F#            A
G|-------------------|-----------------|-------------------|-------------|---------------------|
D|-x-2-3-4-x---x-4-3-|-----------------|-------------x-2-3-|-4-x---x-4-3-|---------------------|
A|-------------------|-0-x---x-2-3-4-x-|-x-2-3-4-x---------|-------------|-0-x-2-3-4---x-2-x-3-|
E|-------------------|-----------------|-------------------|-------------|---------------------|

[Bridge 2] 
(This is the bass solo part. Some notes are played quicker than others, 
so listen to the isolated bass track to get the rythm down.) 

   C#                 F#                  A                     C# 
G|-----6-x-4--------|-------------------|-----------------2---|---------------|
D|-----------6-4-6\-|-----4-x-2-x-------|-------x-2---x-4---4-|---------4-5-6-|
A|-4-x--------------|-------------4-2-4-|-0-0-4---------------|-4-x-4h6-------|
E|------------------|-2-x---------------|---------------------|---------------|

   C#                 F#                  A                     C# 
G|-----6-x-4--------|-------------------|-----------------2---|---------------|
D|-----------6-4-6\-|-----4-x-2-x-------|-------x-2---x-4---4-|---------4-5-6-|
A|-4-x--------------|-------------4-2-4-|-0-0-4---------------|-4-x-4h6-------|
E|------------------|-2-x---------------|---------------------|---------------|

   C#                 F#                  A                 C#
G|-----6-x-4--------|-------------------|-----------------|-----------------|
D|-----------6-4-6\-|-----4-x-2-x-------|-----------------|-----------------|
A|-4-x--------------|-------------4-2-4-|-0-0-0-0-0-0-0-0-|-4-4-4-4-4-4/14\-|
E|------------------|-2-x---------------|-----------------|-----------------|

[Verse]
  E                   E                   A                   C
G|-------------------|-------------------|-------------------|---------5-x-------|
D|-----------x-5-6-7-|-----------x-5-6-7-|---------7-x-------|-----5-x-----5---5-|
A|-----7-x-5---------|-----7-x-5---------|-----7-x-----7---7-|-3-3-----------3---|
E|-0-0---------------|-0-0---------------|-5-5-----------5---|-------------------|

   E                   E                   C#                  C
G|-------------------|-------------------|---------6-x-------|---------5-x-------|
D|-----------x-5-6-7-|-----------x-5-6-7-|-----6-x-----6---6\|-----5-x-----5---5-|
A|-----7-x-5---------|-----7-x-5---------|-4-4-----------4---|-3-3-----------3---|
E|-0-0---------------|-0-0---------------|-------------------|-------------------|

   E                   E                   A                   C
G|-------------------|-------------------|-------------------|---------5-x-------|
D|-----------x-5-6-7-|-----------x-5-6-7-|---------7-x-------|-----5-x-----5---5-|
A|-----7-x-5---------|-----7-x-5---------|-----7-x-----7---7-|-3-3-----------3---|
E|-0-0---------------|-0-0---------------|-5-5-----------5---|-------------------|

   E                   E                   C#                  C                   
G|-------------------|-------------------|---------6-x-------|---------5-x-------|
D|-----------x-5-6-7-|-----------x-5-6-7-|-----6-x-----6---6\|-----5-x-----5---5-|
A|-----7-x-5---------|-----7-x-5---------|-4-4-----------4---|-3-3-----------3---|
E|-0-0---------------|-0-0---------------|-------------------|-------------------|

                                                (This part slides into the chorus)
G|-------------------------------------------------------------------------------|
D|-------------------------------------------------------------------------------|
A|----------------------------------------------------------------------------7\-|
E|-0-----------------------------------------------------------------------------|
   s

[Chorus] 
   E                 B                 D                 A      
G|-----------------|-----------------|-----------------|-------------------------|
D|-----------------|-------2-x-0-----|-----------------|----------4---5----------|
A|-7-x-7---x-----0-|-2-x-2-------2-2-|-5---x-2-x-3-x-2-|-0-x---------------------|
E|-----------2-3---|-----------------|-----------------|------0-2---3------------|
                                                                s p s p                           
  E                  B                 D                 A                     
G|-----------------|-----------------|-----------------|-------------------------|
D|-----------------|-------2-x-0-----|-----------------|-------------------------|
A|-7-x-7--x-----0--|-2-x-2-------2-2-|-5---x-2-x-3-x-2-|-0-x-0-------------------|
E|----------2-3----|-----------------|-----------------|-------2-2-3-3-----------|

  E                  B                 D                 A 
G|-----------------|-----------------|-----------------|-------------------------|
D|-----------------|-------2-x-0-----|-----------------|----------4---5----------|
A|-7-x-7---x-----0-|-2-x-2-------2-2-|-5-x-x-2-x-3-x-2-|-0-x---------------------|
E|-----------2-3---|-----------------|-----------------|------0-2---3------------|
                                                                s p s p                             
  E                  B                 D                 A           
G|-----------------|-----------------|-----------------|-------------------------|
D|-----------------|-------2-x-0-----|-----------------|-------------------------|
A|-7-x-7--x-----0--|-2-x-2-------2-2-|-5---x-2-x-3-x-2-|-0-x-0-------------------|
E|----------2-3----|-----------------|-----------------|-------2-2-3-3-----------|


************************************

| x  Dead note
| \  Slide down
| s  Slap
| h  Hammer-on

************************************

            
            
Suggest correction
Creating personal tab
Creating personal tab
You can edit any tab online and save it as your Personal.

You can edit, replace or remove any tab part or add personal notes – all changes will be seen only by you.

Personal tabs can be accessed anytime from any device, even offline.
Learn more »
Give kudos to tab author, rate the tab!
1 2 3 4 5
comments
print report bad tab
guest
You may want to rate the tab now too:
select rating
Wanna post a correction for this tab? Suggest correction