Oops, an error
Loading. Please wait.

Suicide Tab

by Dust
1,471 views 1 this week
no commentswrite comment
1 2 3 4 5
please rate
add to favorites
launch autoscroll
font size
0
reset
how to read this tab
guitar tuner
Autoscroll
slow
fast
+/-
esc
set tempo
stop
Help us to improve Ultimate-Guitar.com Take our survey!
×
Contributor
Brandon1993 3,844
Dust - Suicide

Track 9 of Dust's 2nd and last album Hard Attack from 1972

this is a really good song
im amazed i haven't found a tab for this song...

enjoy

Intro:
E--------------------------|
B--------------------------|
G--------------------------|
D-9--7--4--10--9--7--4--2--|
A-7--5--2--8---7--5--2--0--|
E--------------------------|

E--------------------------------------------|
B--------------------------------------------|
G--------------------------------------------|
D--------------------------------------------|
A-7/9-99-7/9-99-7/9-99-7/9-99-7/9-99-7/9-99--|
E-5/7-77-5/7-77-5/7-77-5/7-77-5/7-77-5/7-77--|


Verse:
E--------------------------------------------|
B--------------------------------------------|
G--------------------------------------------|
D--------------------------------------------|
A-7/9-99-7/9-99-7/9-99-7/9-99-7/9-99-7/9-99--|
E-5/7-77-5/7-77-5/7-77-5/7-77-5/7-77-5/7-77--|

E--------------------------|
B--------------------------|
G--------------------------|
D-9--7--4--10--9--7--4--2--|
A-7--5--2--8---7--5--2--0--|
E--------------------------|

Repeat 4 times


Chorus:
E-----------|
B-----------|
G-----------|
D-7--9~~----|
A-5--7~~----|
E-----------|


Guitar Part Before Solo:
E----------|
B----------|
G----------|
D-4--7--4--|
A-2--5--2--|
E----------|

I didn't put the solo because its a bass solo
If i figure it out on bass ill submit that at a later date

Lyrics

Verse 1:
You know I'm bleedin'
But you're still wonderin' why
You heard me screamin'
Cryin' out just to die
You thought I loved you
But that was all in the past
As I start crawlin'
I don't know if I can last

Chorus:
Pretty soon I'll be gone
On a long one way ride
Tell your friends not to call
Say it was suicide

Verse 2:
I thought of hangin'
But I knew it was wrong
Then thought of poison
But what I had wasn't strong
Electrocution
I thought would make me a star
I stood in the rain
With my electric guitar

Chorus:
Pretty soon I'll be gone
On a long one way ride
Tell your friends not to call
Say it was suicide

{bass solo}

Verse 3:
I then decided
And put a knife in my heart
It was the answer
But it was only a start
I found a shotgun
And held it close to my heart
And pulled the trigger
Just to be sure I was dead

Chorus:
Pretty soon I'll be gone
On a long one way ride
Tell your friends not to call
Say it was suicide
comments
We did not receive enough feedback on this tab! Please rate:
print report bad tab
1 2 3 4 5
I want to post or [tab]
guest
You may want to rate the tab now too:
select rating
Please do not post tabs as comments. Select "correction" instead!