Oops, an error
Loading. Please wait.

Step Into The Light Bass Tab

116 views 1 this week
no commentswrite comment
1 2 3 4 5
please rate
add to favorites
launch autoscroll
font size
0
reset
guitar tuner
Autoscroll
slow
fast
+/-
esc
set tempo
stop
Help us to improve Ultimate-Guitar.com Take our survey!
×
Contributor
Difficulty
Tuning
[]i9 205
intermediate
C# G# C# F# A# D#
Artist:  Dust For Life
Song: Step Into the Light
Album:  Dust For Life

B Major

This is tabbed for a 5 string with the
Low B Raised to C#


Intro

G |--------------------------------|
D |--------------------------------| X4
A |--------------------------------|
E |--------------------------------|
C#|-0-0-/3h5-3-5-6-6p5h6-6-5-3\0---|


Verse 1
--------------------------------|
--------------------------------| X4
--------------------------------|
--------------------------------|
-0-0-/3h5-3-5-6-6p5h6-6-5-3\0---|


Friday         When

----------------------------------------------------|
----------------------------------------------------|
13-11----------9------------13-11----------9--------|
------------13--13//9--------------------13---13//9-|
-----0000000---------0000000-----00000000-----------|
The open 16ths are very light in this section.



---------------------------------------|
---------------------------------------|
------4-----4----4---------------------|
----------------------4/6-4-2-4-2-0----|
9-/0-----00----0-----------------------|



-------------------------------------|
----------------------------6-4------|
----4-------4-----4-----4/6-----6-4--|
-------------------------------------|
-0------00-----0-----0---------------|


                       "You just can't..."

-------------------------------|
-------------------------------|
----4-----4-----4--------------|
-------------------------------|
-0-----00----0--------5-5-5-5--|

Verse 2
same as vs. 1

Pre-Chorus 2


---------------------------------------|
---------------------------------------|
------4-----4----4---------------------|
----------------------4/6-4-2-4-2-0----|
9-/0-----00----0-----------------------|



-----------------------------------------------|
-------------------------------6-4--6/8-6-4----|
----4-------4-----4--------4h6-------------6---|
-----------------------------------------------|
-0------00------0------------------------------|



-------------------------------|
-------------------------------|
----4-----4-----4--------------|
-------------------------------|
-0-----00----0--------5-5-5-5--|


Interlude A

------------------------|
------------------------|
------------------------| x3
----------9-7-----------|
----0-0-0------7-5------|

4th, 8th and 12th are variations
during the second half of the riff.



-------------------------------|
----6p4----------------7-----9-|
-------6-4-4-5--------7-7---9--|
----------6---4/5---5~~~~~/7---|
-------------------------------|


Friday         When
------------------------------------------------|
------------------------------------------------|
13-11----------9-----------13-11---------9------|
------------13--13/9------------------13---13/9-|
-----000000----------000000-----000000----------|


---------------------------------------|
---------------------------------------|
------4-----4----4---------------------|
----------------------4/6-4-2-4-2-0----|
7-/0-----00----0--------------------0--|



------------------------------------------------|
-------------------------------6-4--6/8-6-4-----|
----4-------4-----4--------4h6-------------6----|
---------------------------------------------4--|
-0------00------0-----------------------------0-|


------------------------|
------------------------|
----4-----4-----4-------|
------------------------|
-0-----00----0----------|


-------------------------------------|
---------------9---------------------|
-----7--------9-7--------------------|
--5------/7--7-----9-9-9h10--9-7-----|
---------------------------------7-5-|



--------------------------------------------|
-----7------9-------------------------------|
----7-7----9-7-----7---9/11-9---------------|
--5~~~~/7~~~~~/9----9--------11h13p11-------|
-------------------------------------13-11\-|



-------------------------------------------|
----------------9--------------------------|
-----7--5------9-7--------7/9-7------------|
--5------5/7--7-----9--7-9------9-7-10-9-7-|
-------------------------------------------|

---------------------|
---------------------|
-----7---------------|
--5----5/7--7777777--|
---------------------|


------------------------------------|
------------------------------------|
------------------------------------|
------------------------------------|
-0-0-/3h5-3-5-6-6p5h6-6-5-3-12-12/--|
Suggest correction What's this?
You can suggest a correction to this tab. Community and Mods will review your correction and vote to approve or reject it.
comments
We did not receive enough feedback on this tab! Please rate:
print report bad tab
1 2 3 4 5
I want to post or [tab]
guest
You may want to rate the tab now too:
select rating
Please do not post tabs as comments. Select "correction" instead!