Oops, an error
Loading. Please wait.

Gold Dust tab

by Duster
3,134 views 54 this week
5 commentsread comments
1 2 3 4 5
x 4
add to favorites
×
Save as Personal and add changes to this tab that will be seen only by you. Learn more ›
×
You can save this tab as Personal to edit and correct it or add notes. All changes will be seen only by you. Learn more »
launch autoscroll
font size
0
reset
how to read this tab
guitar tuner
edit
Autoscroll
slow
fast
+/-
esc
set tempo
stop
Author
Difficulty
             ---------------------------------------------------
                             GOLD DUST - Duster 
             ---------------------------------------------------   
  


Tuning: Eb Ab Db Gb Bb Eb

 
An unfortunately little known space-rock/lo-fi/slowcore band which released a few EPs and 
albums between 1996 and 2000 before disbanding (sadly) in 2001.  
This song is the 3rd track on the Stratosphere LP. 




There are at least 2 guitars and a bass in the track, its still pretty basic but here it is for
one guitar.

-----------------------------------------------------------------------------------------------



These are the two chord shapes I use for the first part, 
you can play the extra notes without it sounding too off.

e|-----------------------------|
B|---------9--------9----------|
G|---------x--------x----------|
D|---------9--------9----------|
A|---------7--------7----------|
E|---------0--------9----------|




Part 1
------

e|---------------------------------------------------------------|
B|----9---9-9------9----9-9--9-----------------------------------|
G|---------------------------------------------------------------|
D|----9---9-9----9-9--9-9-9--9---7-----7-----7---9-9-9-----------|
A|--7---7------------------------7-----7-----7---9-9-9-----------|
E|0------------9-------------9-\-5-5-5-5-5-5-5-5/7-7-7-----------|

Repeat with some small variations



Part 2  (actually the bass melody with an E chord and an A chord underneath but who cares)
------

e|----------------------------------------------------------------|
B|----------------------------------------------------------------|
G|----------------------------------------------------------------|
D|----------------------------------------------------------------|
A|----12-11-7---7-2-4-2-0-2-0--977-7--7-77-7----------------------|
E|0-0---------0---0~~----------555-5-55-55-5----------------------|

e|----------------------------------------------------------------|
B|----------------------------------------------------------------|
G|----------------------------------------------------------------|
D|-----------------------------------------6~-play this when it---|
A|----12-11-7---7-2-4-2-0-2-4--977-7--7-77-7---sounds nice--------|
E|0-0---------0---0~~----------555-5-55-55-5----------------------|

Repeat ad nauseam and end on an A chord.


| /  slide up
| \  slide down
| h  hammer-on
| p  pull-off
| ~  vibrato
| +  harmonic
| x  Mute note

            
            
Suggest correction
Creating personal tab
Creating personal tab
You can edit any tab online and save it as your Personal.

You can edit, replace or remove any tab part or add personal notes – all changes will be seen only by you.

Personal tabs can be accessed anytime from any device, even offline.
Learn more »
comments
print report bad tab
5 comments total. Showing first comments.
0 reply
Matisa 394 Jan 31, 2016 11:21 AM

The tuning Eb Db Eb Ab Bb Eb fits pretty well:

Eb|--------------------------------|--------------------------------|
Bb|--------9-----------9-------9---|--------9-----------9-------9---|
Ab|--------------------------------|--------------------------------|
Eb|--------------------------------|--------------------------------|
Bb|----0---------------------------|----9---------------------------|
Eb|0---------------0---------------|9---------------9---------------|

Eb|-------------------------------------|-------------------------------------|
Bb|-------------------------------------|-------------------------------------|
Ab|---------7-------------------7-------|------------7--------------------9---|
Eb|9---\----5-------------------5-------|------------5-------5-/--7-------7---|
Bb|9---\----5-------(5)---(5)---5-------|(5)---(5)---5-------5-/--7---7---7---|
Eb|9---\----5-------(5)---(5)---5-------|(5)---(5)---5-------5-/--7---7---7---|

0 reply
emery01 671 Jan 31, 2016 05:03 PM

I think you're right, Eb Bb Eb Ab Bb Eb sounds more accurate.

the second part of the song would be like this:

eb|------------------------------------------------------|
Bb|------------------------------------------------------|
Ab|------------------------------------------------------|
Eb|---------------------------5---5-5---5-4b5r4----------|
Bb|----10-9-5-5--0-2-0--------7---5-5---5-5--------------|
Eb|0-0-------0---------5-7-5--5-5-5-5-5-5-5--------------|

0 reply
deadlikemeband 10 Mar 31, 2016 09:50 AM

just found this album. thanks for the tabs

guest
You may want to rate the tab now too:
select rating
Wanna post a correction for this tab? Suggest correction