Oops, an error
Loading. Please wait.

Heading Through The Door tab

by Duster
1,537 views 12 this week
3 commentsread comments
1 2 3 4 5
1 last vote to show rating
add to favorites
×
Save as Personal and add changes to this tab that will be seen only by you. Learn more ›
×
You can save this tab as Personal to edit and correct it or add notes. All changes will be seen only by you. Learn more »
launch autoscroll
font size
0
reset
how to read this tab
guitar tuner
edit
Autoscroll
slow
fast
+/-
esc
set tempo
stop
Full song, not all the guitar parts. Just listen and vary the chords below.

() = played second round

Intro guit 1

E--------------------------------------------------------|
B--------------------------------------------------------|
G---4-4-4-4-4-4-4-4-4-4-4-4-4-4-4-4----------------------|
D---4-4-4-4-4-4-4-4-4-4-4-4-4-4-4-4----------------------|
A---2-2-2-2-2-2-2-2-2-2-2-2-2-2-2-2----------------------|
D--------------------------------------------------------|

Intro guit 2

E--------------------------------------------------------|
B--------------------------------------------------------|
G-------4---3-4-----------4---3-4------------------------|
D---4-4---4-----4-4---4-4---4-----4-4--------------------|
A--------------------------------------------------------|
D--------------------------------------------------------|

Verse

E--------------------------------------------------------|
B--------------------------------------------------------|
G--------6---------6---------6---------6-----------------|
D-----4----4-----2---2-----4---4-----6---6---------------|
A--------------0---------2---------4---------------------|
D---0----------------------------------------------------|

Bridge

E-------------------------------------------------------------------------------|
B-------------------------------------------------------------------------------|
G-------6-------6--------6--------6------6-6-6-6-6-6-6---4-4-4-4-4-4-4----------|
D-----4---4---4---4----4---4----4---4----4-4-4-4-4-4-4---2-2-2-2-2-2-2----------|
A----------------------------------------2-2-2-2-2-2-2---0-0-0-0-0-0-0----------|
D---0-------0--------0--------0-------------------------------------------------|

Outro

E--------------------------------------------------------|
B--------------------------------------------------------|
G------------2-------------------------------------------|
D--------0-----0--------3----------(5)-------------------|
A---1-^0---1-----1----3--------(5)-----------------------|
D-------------------3-------(5)--------------------------|

            
            
Suggest correction
Creating personal tab
Creating personal tab
You can edit any tab online and save it as your Personal.

You can edit, replace or remove any tab part or add personal notes – all changes will be seen only by you.

Personal tabs can be accessed anytime from any device, even offline.
Learn more »
Give kudos to tab author, rate the tab!
1 2 3 4 5
comments
print report bad tab
3 comments total.
+1 reply
SHAMWOW?! 16 Feb 14, 2016 07:37 PM

I have been doing this for the verse, keeping my pinky on the 11th and sliding my index finger up the d/A

E------------------------------------------------
B------------------------------------------------
G------------------------------------------------
D-----11-------11-------11----------11-----------
A---9----9---7----7---9----11----11----11--------
d-0--------7--------9---------11-----------------

0 reply
SHAMWOW?! 16 Feb 14, 2016 07:43 PM

And this for the bridge

E-------------------------------------------------
B-------------------------------------------------
G-------------------------------------------------
D-11-----11-11---9~-9--------------------------------------
A-9------0--9----7~-7-----------------------------------
d-0-x15--0--9-x7-7~-7-x7----------------------------------

0 reply
SHAMWOW?! 16 Feb 14, 2016 07:52 PM

Apologies for the cumbersome comments, I'm not sure how to do this in a nicer way.
Outro
~ = ring out
/ = slide

E-------------------------------------------------------
B-------------------------------------------------------
G--------------------------------------------------------
D-------0---7-0-------3~---------7---8-7-------3~/---5~---
A-0---0---0-----0---3~-----0---0---0-----0---3~-/--5~----
d---8-------------3~---------8-------------3~--/-5~-------


Good tab either way, it helped me work out some of the things I wasn't sure about with how I played it.

guest
You may want to rate the tab now too:
select rating
Wanna post a correction for this tab? Suggest correction