Oops, an error
Loading. Please wait.

Memphis Sophisticate Tab

10 views 6 this week
no commentswrite comment
1 2 3 4 5
3 more votes to show rating
add to favorites
launch autoscroll
font size
0
reset
how to read this tab
guitar tuner
Autoscroll
slow
fast
+/-
esc
set tempo
stop
Help us to improve Ultimate-Guitar.com Take our survey!
×
Author
Difficulty
Tuning
novice
D A D G B E
About this tab version
Hasn't been tabbed before perhaps some could benefit from it. Hopefully the format is correct. Was this info helpful? Yes No
[Intro]
e|---------------------------------------------------------------------------|
B|---------------------------------------------------------------------------|
G|-----0----------0-------6--------0----------0-------4-2--------------------|
D|---4----4~----4----4~---0------4----4~----4----4~-----0--0-----------------|
A|-2------2~--2------2~---0----2------2~--2------2~-----0--0-----------------|
D|------------------------0--------------------------------0-----------------|

Havent done the riff part but play of off something like this

e|-----------------------------------------------|
B|----------------------7----------8-------------|
G|-------7-------7---------7---------------------|
D|-----9---9-7-9---------9---9-7-9---------------|
A|---9-------------------------------------------|
D|-----------------------------------------------|

************************************

| ~  Vibrato

************************************
Suggest correction
Give kudos to tab author, rate the tab!
1 2 3 4 5
comments
print report bad tab
guest
You may want to rate the tab now too:
select rating
Wanna post a correction for this tab? Suggest correction