Oops, an error
Loading. Please wait.

Stars Will Fall Tab

19 views 1 this week
no commentswrite comment
1 2 3 4 5
3 more votes to show rating
add to favorites
launch autoscroll
font size
0
reset
how to read this tab
guitar tuner
Autoscroll
slow
fast
+/-
esc
set tempo
stop
Help us to improve Ultimate-Guitar.com Take our survey!
×
Author
tune 1/4 step up to play with recording
tune 1/2 step up to play with "On the Air Version

e|-----------------------------------------------------------------------------------|
B|-----------------------------------------------------------------------------------|
G|-----------------------------------------------------------------------------------|
D|--13-13-13-13-13-13-13-13-10-10-10-10-10-10-10-10-6-6-6-6-6-6-6-6-6-6-6-6-6-6-6-6--|
A|--11-11-11-11-11-11-11-11-11-11-11-11-11-11-11-11-8-8-8-8-8-8-8-8-8-8-8-8-8-8-8-8--| 2x
E|--11-11-11-11-11-11-11-11-11-11-11-11-11-11-11-11-9-9-9-9-9-9-9-9-9-9-9-9-9-9-9-9--|

e|-----------------------------------------------------------------------------------|
B|-----------------------------------------------------------------------------------|
G|-----------------------------------------------------------------------------------|
D|--13-13-13-13-13-13-13-13-10-10-10-10-10-10-10-10-6-6-6-6-6-6-6-6-6-6-6-6-6-6-6-6--|
A|--11-11-11-11-11-11-11-11-11-11-11-11-11-11-11-11-8-8-8-8-8-8-8-8-8-8-8-8-8-8-8-8--| 2x
E|--11-11-11-11-11-11-11-11-11-11-11-11-11-11-11-11-9-9-9-9-9-9-9-9-9-9-9-9-9-9-9-9--|
    All                                       we    know                        Is
    that        Stars                         will  fall

e|-----------------------------------------------------------------------------------|
B|-----------------------------------------------------------------------------------|
G|-----------------------------------------------------------------------------------|
D|--13----------------------10----------------------6-6-6-6-6-6-6-6-6-6-6-6-6-6-6-6--|
A|--11----------------------11----------------------8-8-8-8-8-8-8-8-8-8-8-8-8-8-8-8--| 1x
E|--11----------------------11----------------------9-9-9-9-9-9-9-9-9-9-9-9-9-9-9-9--|

e|------------------------------------------------------|
B|------------------------------------------------------|
G|------------------------------------------------------|
D|--13-13-13-13-13-13-13-13-10-10-10-10-10-10-10-10-6---|
A|--11-11-11-11-11-11-11-11-11-11-11-11-11-11-11-11-8---| 1x
E|--11-11-11-11-11-11-11-11-11-11-11-11-11-11-11-11-9---|
And             Holidays                come  and   go
Suggest correction
Give kudos to tab author, rate the tab!
1 2 3 4 5
comments
print report bad tab
guest
You may want to rate the tab now too:
select rating
Wanna post a correction for this tab? Suggest correction