Oops, an error
Loading. Please wait.

Cowboys And Angels Tab

version 1
version 1

Whole song

14,322 views 9 this week
no commentswrite comment
1 2 3 4 5
excellent!
x 5
add to favorites
launch autoscroll
font size
0
reset
how to read this tab
guitar tuner
Autoscroll
slow
fast
+/-
esc
set tempo
stop
Help us to improve Ultimate-Guitar.com Take our survey!
×
Author
Difficulty
Tuning
intermediate
D G C F A D
I noticed there are no tabs for this song online but only chords. Playing chords 
to this song doesn't do it justice. I am very confident in this tab. Listen to the 
song for the timing… it is very important for this song. The tuning is a full step 
down. Chords are not transposed but only refer to the fingering. Take your pick on 
Am or Am7 as well as G or a full G. But there are parts where the Am seems to fit 
better and as well with the full G, experiment with it. Lynch plays both 
variations of both chords. I tried to follow the exact way lynch plays. Have fun 
with it, it’s a great song. 

Note* If this tab has random symbols and numbers throughout it it not my doing the 
format seems to be messing up my tab

Cowboys and Angels
by Dustin Lynch
Tabbed by Michael Stamey

    Am(or)Am7  G/B  C   Fmaj7  G/G
d |-0-----0----x----0---0------3-3-|
A |-1-----1----3----1---1------0-3-|
F |-2-----0----0----0---2------0-0-|
C |-2-----2----0----2---3------0-0-|
G |-0-----0----2----3---3------2-2-|
D |-x-----x----x----x---x------3-3-|

Intro
    Am7      G/B C          Am7     G    Fmaj7
d |--------------0-----0------------------------------|
A |-0h1-1----3-----1-----1--0h1-1--0—-0h1---1---------|
F |------0-0---0----0-0---0------0---0-----2--0-------|
C |-------2---0------2-----2------2-------3----3------|
G |-0--0-----2---33----33---0--0---------3---3--------|
D |---------------------------------3-----------------|

Verse
    Am7      G/B C           Fmaj7      Am7   G
d |--------------0-----0------------------------------------|
A |-0h1-1----3-----1-----1---1---1----------1---0--------0--|
F |------0-0---0----0-0---0—-0h2-2p0-------0----0-0h2p0---0-|
C |-------2---0------2-----2--------3-3-0h2----------------0|
G |-0--0-----2---33----33----3--3----3----------------------|
D |-------------------------------------------33-------33---|

Verse (continued)
    Am7 G/B C   Fmaj7                   G
d |---------0---0-------0-------0-------3------------|
A |-1---3-------1--1----1--1----1--1----0------------|
F |---0---0---0-2---2-2-2---2-2-2---2-2-0------------|
C |--2---0---2--3----3--3----3--3----3--0------------|
G |-0---2---3---3-3-----3-3-----3-3-----2------------|
D |-------------x-------x-------x-------3------------|

Instrumental break 
    Am7      G/B C          Am7     G    Fmaj7
d |--------------0-----0------------------------------|
A |-0h1-1----3-----1-----1--0h1-1--0—-0h1---1---------|
F |------0-0---0----0-0---0------0---0-----2--0-------|
C |-------2---0------2-----2------2-------3----3------|
G |-0--0-----2---33----33---0--0---------3---3--------|
D |---------------------------------3-----------------|

Verse 2
    Am7      G/B C           Fmaj7      Am7   G
d |--------------0-----0------------------------------------|
A |-0h1-1----3-----1-----1---1---1----------1---0--------0--|
F |------0-0---0----0-0---0—-0h2-2p0-------0----0-0h2p0---0-|
C |-------2---0------2-----2--------3-3-0h2----------------0|
G |-0--0-----2---33----33----3--3----3----------------------|
D |-------------------------------------------33-------33---|

Verse 2 (continued)
    Am7 G/B C   Fmaj7                   G
d |---------0---0-------0-------0-------3------------|
A |-1---3-------1--1----1--1----1--1----0------------|
F |---0---0---0-2---2-2-2---2-2-2---2-2-0------------|
C |--2---0---2--3----3--3----3--3----3--0------------|
G |-0---2---3---3-3-----3-3-----3-3-----2------------|
D |-------------x-------x-------x-------3------------|

Chorus (strumming, no picking)
   Fmaj7 G        C     Am7
We   ride  side by side
          Fmaj7 G          Am   G
A cloud of dust,  a ray of light
   Fmaj7
My touch is her temptation
    G
Her kiss is my salvation
       C         G/B         Am7  G  Fmaj7
She’s sweet, I’m wild, we’re dangerous
            G   C
Cowboys and Angels

Instrumental break 
    Am7      G/B C          Am7     G    Fmaj7
d |--------------0-----0------------------------------|
A |-0h1-1----3-----1-----1--0h1-1--0—-0h1---1---------|
F |------0-0---0----0-0---0------0---0-----2--0-------|
C |-------2---0------2-----2------2-------3----3------|
G |-0--0-----2---33----33---0--0---------3---3--------|
D |---------------------------------3-----------------|

Verse 3
    Am7      G/B C           Fmaj7      Am7   G
d |--------------0-----0------------------------------------|
A |-0h1-1----3-----1-----1---1---1----------1---0--------0--|
F |------0-0---0----0-0---0—-0h2-2p0-------0----0-0h2p0---0-|
C |-------2---0------2-----2--------3-3-0h2----------------0|
G |-0--0-----2---33----33----3--3----3----------------------|
D |-------------------------------------------33-------33---|






Verse 3 (continued)
    Am7 G/B C   Fmaj7                   G
d |---------0---0-------0-------0-------3------------|
A |-1---3-------1--1----1--1----1--1----0------------|
F |---0---0---0-2---2-2-2---2-2-2---2-2-0------------|
C |--2---0---2--3----3--3----3--3----3--0------------|
G |-0---2---3---3-3-----3-3-----3-3-----2------------|
D |-------------x-------x-------x-------3------------|

Chorus 2 (strumming, no picking)
   Fmaj7 G        C     Am7
We   ride  side by side
          Fmaj7 G          Am7   G
A cloud of dust,  a ray of light
   Fmaj7
My touch is her temptation
    G
Her kiss is my salvation
       C         G/B         Am G  Fmaj7
She’s sweet, I’m wild, we’re dangerous
            G   Fmaj7
Cowboys and Angels

Bridge: (You can strum or pick take your pick)
G       C       Am7     Fmaj7   G       Am      G       Fmaj7   G       C       G/B
Am7     G       Fmaj7

Last Verse
    Am7      G/B C           Fmaj7      Am7   G
d |--------------0-----0------------------------------------|
A |-0h1-1----3-----1-----1---1---1----------1---0--------0--|
F |------0-0---0----0-0---0—-0h2-2p0-------0----0-0h2p0---0-|
C |-------2---0------2-----2--------3-3-0h2----------------0|
G |-0--0-----2---33----33----3--3----3----------------------|
D |-------------------------------------------33-------33---|

Last Verse (continued)
    Am7 G/B C   Fmaj7                   G
d |---------0---0-------0-------0-------3------------|
A |-1---3-------1--1----1--1----1--1----0------------|
F |---0---0---0-2---2-2-2---2-2-2---2-2-0------------|
C |--2---0---2--3----3--3----3--3----3--0------------|
G |-0---2---3---3-3-----3-3-----3-3-----2------------|
D |-------------x-------x-------x-------3------------|

Ending
    Am7      G/B C          Am7     G    Fmaj7
d |--------------0-----0------------------------------|
A |-0h1-1----3-----1-----1--0h1-1--0—-0h1---1---------|
F |------0-0---0----0-0---0------0---0-----2--0-------|
C |-------2---0------2-----2------2-------3----3------|
G |-0--0-----2---33----33---0--0---------3---3--------|
D |---------------------------------3-----------------|
Suggest correction
comments
print report bad tab
guest
You may want to rate the tab now too:
select rating
Please do not post tabs as comments. Select "correction" instead!