Oops, an error
Loading. Please wait.

Plans tab

31 views 6 this week
no commentswrite comment
1 2 3 4 5
3 more votes to show rating
add to favorites
×
Save as Personal and add changes to this tab that will be seen only by you. Learn more ›
×
You can save this tab as Personal to edit and correct it or add notes. All changes will be seen only by you. Learn more »
launch autoscroll
font size
0
reset
how to read this tab
guitar tuner
edit
Autoscroll
slow
fast
+/-
esc
set tempo
stop
About this tab version
This is a simple version of what is actually played. The beginning is pretty accurate, but as the second verse and chorus progress, the recording gets more complex. I've kept the second part simple. Would sound good with a reverb pedal and a little bit of echo. Was this info helpful? Yes No
Capo 2 
Standard Tuning

[Intro]
e|---------------------|--------------------|---------------------|--------------------|
B|-5-----5---5-----5---|-5-----5--7-----7---|-5-----5---5-----5---|-5-----5---5-----5--|
G|-----0---------0-----|-----0--------0-----|-----0---------0-----|-----0---------0----|
D|---------------------|--------------------|---------------------|--------------------|
A|-3-3-----3-3-3-----3-|-3-3----3-5-5-----5-|-3-3-----3-3-3-----3-|-3-3-----3-3-3----3-|
E|---------------------|--------------------|---------------------|--------------------|

[Verse]
e|---------------------|---------------------|---------------------|--------------------|
B|-5-----5---5-----5---|-7-----7---7-----7---|-5-----5---5-----5---|-5-----5---5-----5--|
G|-----0---------0-----|-----0---------0-----|-----0---------0-----|-----0---------0----|
D|---------------------|---------------------|---------------------|--------------------|
A|-3-3-----3-3-3-----3-|-5-5-----5-5-5-----5-|-3-3-----3-3-3-----3-|-3-3-----3-3-3----3-|
E|---------------------|---------------------|---------------------|--------------------|   (x4)

[Verse 1]
Hold you close, you feel part of my skin.
In the morning I'll map your palms again.
And on your back I'll trace this story.
Here today, the lines are everything.

[Verse 2]
In your backseat before the party.
The rains been on me since the border.
I never thought we'd be at this harbor.
Didn't think I'd be here still.

[Chorus]
  How you say those words. It's not with an air or a trembling voice 
e|---------------------|---------------------|---------------------|--------------------|
B|-5-----5---5-----5---|-8-----8---8-----8---|-7-----7---7-----7---|-5-----5---5-----5--|
G|-----0---------0-----|-----0---------0-----|-----0---------0-----|-----0---------0----|
D|---------------------|---------------------|---------------------|--------------------|
A|-3-3-----3-3-3-----3-|-7-7-----7-7-7-----7-|-5-5-----5-5-5-----5-|-3-3-----3-3-3----3-|
E|---------------------|---------------------|---------------------|--------------------|

  How you say those words... to me.
e|---------------------|---------------------|---------------------|--------------------|
B|-5-----5---5-----5---|-8-----8---8-----8---|-5-----5---5-----5---|-3-----3---3-----3--|
G|-----0---------0-----|-----0---------0-----|-----0---------0-----|-----0---------0----|
D|---------------------|---------------------|---------------------|--------------------|
A|-3-3-----3-3-3-----3-|-7-7-----7-7-7-----7-|-3-3-----3-3-3-----3-|--------------------|
E|---------------------|---------------------|---------------------|-3-------3-3-3----3-|

  How you say those words. It's not to the stars or the wide universe
e|---------------------|---------------------|---------------------|--------------------|
B|-5-----5---5-----5---|-8-----8---8-----8---|-7-----7---7-----7---|-5-----5---5-----5--|
G|-----0---------0-----|-----0---------0-----|-----0---------0-----|-----0---------0----|
D|---------------------|---------------------|---------------------|--------------------|
A|-3-3-----3-3-3-----3-|-7-7-----7-7-7-----7-|-5-5-----5-5-5-----5-|-3-3-----3-3-3----3-|
E|---------------------|---------------------|---------------------|--------------------|

  How you say those words... 
e|---------------------|---------------------|-----------------------|
B|-5-----5---5-----5---|-8-----8---8-----8---|-7-----7---7-----7---7-|
G|-----0---------0-----|-----0---------0-----|-----0---------0-------|
D|---------------------|---------------------|-----------------------|(Pause for the remaining measure)
A|-3-3-----3-3-3-----3-|-7-7-----7-7-7-----7-|-5-5-----5-5-5-----5-5-| (4 beats)
E|---------------------|---------------------|-----------------------|

   Its only to me

[Chorus 2] 
How to say these words. The space in my chest remembers the shape of you.
How to say these words, I'll see.
How to say these words. I've been in covers and who would've thought.
How to say these words.
I'm complete.

[Instrumental] 
(Play after each chorus)
e|---------------------|--------------------|---------------------|--------------------|
B|-5-----5---5-----5---|-5-----5--3-----3---|-8-----8---8-----8---|-8-----8---3-----3--|
G|-----0---------0-----|-----0--------0-----|-----0---------0-----|-----0---------0----|
D|---------------------|--------------------|---------------------|--------------------|
A|-3-3-----3-3-3-----3-|-3-3----3-----------|-7-7-----7-7-7-----7-|-7-7-----7-5-5----5-|
E|---------------------|----------3-3-----3-|---------------------|--------------------|  (x2) 

[Outro]
e|---------------------|--------------------|---------------------|--------------------|
B|-5-----5---5-----5---|-5-----5--3-----3---|-8-----8---8-----8---|-8-----8---3-----3--|
G|-----0---------0-----|-----0--------0-----|-----0---------0-----|-----0---------0----|
D|---------------------|--------------------|---------------------|--------------------|
A|-3-3-----3-3-3-----3-|-3-3----3-----------|-7-7-----7-7-7-----7-|-7-7-----7-5-5----5-|
E|---------------------|----------3-3-----3-|---------------------|--------------------|  (x2)

e|---------------------|--------------------|---------------------|--------------------|
B|-5-----5---5-----5---|-5-----5--7-----7---|-5-----5---5-----5---|-5-----5---5-----5--|
G|-----0---------0-----|-----0--------0-----|-----0---------0-----|-----0---------0----|
D|---------------------|--------------------|---------------------|--------------------|
A|-3-3-----3-3-3-----3-|-3-3----3-5-5-----5-|-3-3-----3-3-3-----3-|-3-3-----3-3-3----3-|
E|---------------------|--------------------|---------------------|--------------------|  (x2)
Suggest correction
Creating personal tab
Creating personal tab
You can edit any tab online and save it as your Personal.

You can edit, replace or remove any tab part or add personal notes – all changes will be seen only by you.

Personal tabs can be accessed anytime from any device, even offline.
Learn more »
Give kudos to tab author, rate the tab!
1 2 3 4 5
comments
print report bad tab
guest
You may want to rate the tab now too:
select rating
Wanna post a correction for this tab? Suggest correction