Oops, an error
Loading. Please wait.

Son Of A Preacher Man Bass

version 1
version 1

Whole song

Interactive

52,853 views 30 this week
2 commentsread comments
1 2 3 4 5
x 8
add to favorites
launch autoscroll
font size
0
reset
guitar tuner
×
Best way to learn
"Son Of A Preacher Man"
Autoscroll
slow
fast
+/-
esc
set tempo
stop
Author
E-------12-<12>-------------|
B-11/12------------13\12----|
G-12/13------------14\13----|
D-----------------------14--|
A---------------------------|
E---------------------------|

(If anyone is interested in the bassline, it's very simple, and is
based around major pentatonic shapes.)

 It starts like this:
G|-----9--9----------------------------9--9-------------------------|
D|----------------------9--9h11-------------------------9--9--9h11--|
A|-7----------7--7h9/11-----------7--7--------7---9/11--------------|
E|------------------------------------------------------------------|

(then just follows the root notes with the occasional major
pentatonic run.)

(E major pentatonic)

G|-----------------9--11--13-|
D|----------9--11------------|  
A|7--9--11-------------------|  
E|---------------------------|  

(once you've got that shape down,
you can start it on any note to get
that note's major pentatonic, eg. if you
play the same shape starting on the 7th
fret of the E string you've got Bmaj
pentatonic.)
                               
                                
Suggest correction
comments
print report bad tab
2 comments total.
+1 reply
_basisten_ 10 Sep 09, 2003 08:00 PM

Good work, buddy!

0 reply
Gapiro 30 Feb 01, 2012 06:40 AM

It is FAR more complicated than this, but you get the idea from this.

guest
You may want to rate the tab now too:
select rating
Wanna post a correction for this tab? Suggest correction