Oops, an error
Loading. Please wait.

Spooky tab

3,403 views 12 this week
no commentswrite comment
1 2 3 4 5
2 more votes to show rating
add to favorites
×
Save as Personal and add changes to this tab that will be seen only by you. Learn more ›
×
You can save this tab as Personal to edit and correct it or add notes. All changes will be seen only by you. Learn more »
launch autoscroll
font size
0
reset
how to read this tab
guitar tuner
edit
Autoscroll
slow
fast
+/-
esc
set tempo
stop
Difficulty
Standard tuning 

Ok my first tab, i think its dead on i just can't work out the last bit when it 
goes "Love is kinda crazy with a spooky little girl like you" but if you can work 
it out please post.


E  --------------------------------------------------------2---2---2----)    
B  -----1-------1--------1-------1--------1-------1--------3---3---3----) x2
G  -----0-------0--------0-------0--------0-------0--------2---2---2----)
D  -----2-------2--------2-------2--------2-------2----0-0---0---0---0--)
A  -0-0---0-0-0---0--5-5---5-5-5---5--0-0---0-0-0---0-------------------)
E  ---------------------------------------------------------------------)

E  -----------------------------------2----2----------------------------)    
B  -----1-------1--------1-------1----2-X4-2-X?---------1-------1-------) 
G  -----0-------0--------0-------0----2----2------------0-------0-------)
D  -----2-------2--------2-------2----0----0------------2-------2-------)
A  -0-0---0-0-0---0--3-3---3-3-3---3----------------0-0---0-0-0---0-----)
E  ---------------------------------------------------------------------)

with the X? strum all down strokes at a slower tempo until the start of "all right"

In the cool of the evening
When everything is gettin kind of groovy
I call you up and ask you if you
Would you like to go with me and see a movie
First you say no, you've got some plans for the night
And then you stop, and say, all right ----------------> tab stops here!
Love is kinda crazy with a spooky little girl like you


You always keep me guessin
I never seem to know what you are thinkin
And if a fella looks at you
It's for sure your little eye will be a-winkin
I get confused, cause I don't know where I stand
And then you smile, and hold my hand
Love is kinda crazy with a spooky little girl like you
Spooky


If you decide someday to stop this little game that you are playin
I'm gonna tell you all what my heart's been a-dyin to be sayin
Just like a ghost, you've been a-hauntin my dreams
So I'll propose on Halloween
Love is kinda crazy with a spooky little girl like you
Spooky, spooky, oh whoa, all right
Spooky, oh yea yea
I said Spooky yea yea 

            
            
Suggest correction
Creating personal tab
Creating personal tab
You can edit any tab online and save it as your Personal.

You can edit, replace or remove any tab part or add personal notes – all changes will be seen only by you.

Personal tabs can be accessed anytime from any device, even offline.
Learn more »
Give kudos to tab author, rate the tab!
1 2 3 4 5
comments
print report bad tab
guest
Wanna post a correction for this tab? Suggest correction