Oops, an error
Loading. Please wait.

Cain Novocain Bass Tab

1 view 1 this week
no commentswrite comment
1 2 3 4 5
3 more votes to show rating
add to favorites
launch autoscroll
font size
0
reset
guitar tuner
Autoscroll
slow
fast
+/-
esc
set tempo
stop
Help us to improve Ultimate-Guitar.com Take our survey!
×
Author
Difficulty
Intro 
G|-----------------------------------------|
D|-----------------------------------------|
A|----------------------2(Hold)------/14---|
E|-----------------------------------------|

Verse
G|-----------------------------------------|-----------------------------------------|
D|-----------------------------------------|-----------------------------------------|
A|-2--2-2--2-2--2-2-2---2--2-2--2-2--2-2-2-|-2--2-2--0-0--0-0-0---2--2-2--2-2--2-2-2-|
E|-----------------------------------------|-----------------------------------------|

G|-----------------------------------------|-----------------------------------------|
D|-----------------------------------------|-----------------------------------------|
A|-2--2-2--2-2--2-2-2---2--2-2--2-2--2-2-2-|-2--2-2--2-2--2-2-2---0--0-0--0-0--0-0-0-|
E|-----------------------------------------|-----------------------------------------|


Chorus ("Well I Came and I Saw...")
G|----------------------------------------------------|-----------------------------------------|
D|----------------------------------------------------|-----------------------------------------|
A|-2-2-2-2--0-0-0-0--5-5-5-5--2-2-2-2---------0-0-0-0-|-2--2-2--2-2--2-2-2---2--2-2--2-2--2-2-2-|
E|------------------------------------3-3-3-3---------|-----------------------------------------|

Verse
G|-----------------------------------------|-----------------------------------------|
D|-----------------------------------------|-----------------------------------------|
A|-2--2-2--2-2--2-2-2---2--2-2--2-2--2-2-2-|-2--2-2--0-0--0-0-0---2--2-2--2-2--2-2-2-|
E|-----------------------------------------|-----------------------------------------|

G|-----------------------------------------|-----------------------------------------|
D|-----------------------------------------|-----------------------------------------|
A|-2--2-2--2-2--2-2-2---2--2-2--2-2--2-2-2-|-2--2-2--2-2--2-2-2---0--0-0--0-0--0-0-0-|
E|-----------------------------------------|-----------------------------------------|


Chorus ("Well I Came and I Saw...")                                      ("I'm Cain Novocain...")
G|----------------------------------------------------|-----------------------------------------|
D|----------------------------------------------------|-----------------------------------------|
A|-2-2-2-2--0-0-0-0--5-5-5-5--2-2-2-2---------0-0-0-0-|-2--2-2--2-2--2-2-2---2--2-2--2-2--2-2-2-|
E|------------------------------------3-3-3-3---------|-----------------------------------------|

("I'm Cain Novocain...")
G|-----------------------------------------|-----------------------------------------|
D|-----------------------------------------|-----------------------------------------|
A|-2--2-2--2-2--2-2-2---2--2-2--2-2--2-2-2-|-2--2-2--2-2--2-2-2---2--2-2--2-2--2-2-2-|
E|-----------------------------------------|-----------------------------------------|


Chorus ("Well I Came and I Saw...")                                      ("I'm Cain Novocain...")
G|----------------------------------------------------|-----------------------------------------|
D|----------------------------------------------------|-----------------------------------------|
A|-2-2-2-2--0-0-0-0--5-5-5-5--2-2-2-2---------0-0-0-0-|-2--2-2--2-2--2-2-2---2--2-2--2-2--2-2-2-|
E|------------------------------------3-3-3-3---------|-----------------------------------------|

("I'm Cain Novocain...")
G|-----------------------------------------|-----------------------------------------|
D|-----------------------------------------|-----------------------------------------|
A|-2--2-2--2-2--2-2-2---2--2-2--2-2--2-2-2-|-2--2-2--2-2--2-2-2---2--2-2--2-2--2-2-2-|
E|-----------------------------------------|-----------------------------------------|


Outro ("I'm Cain Novocain")
G|-----------------------------------------|-----------------------------------------|
D|-----------------------------------------|-----------------------------------------|
A|-2--2-2--2-2--2-2-2---2--2-2--2-2--2-2-2-|-2--2-2--2-2--2-2-2---2--2-2--2-2--2-2-2-|
E|-----------------------------------------|-----------------------------------------|

G|-----------------------------------------|-----------------------------------------|
D|-----------------------------------------|-----------------------------------------|
A|-2--2-2--2-2--2-2-2---2--2-2--2-2--2-2-2-|-2--2-2--2-2--2-2-2---2--2-2--2-2--2-2-2-|
E|-----------------------------------------|-----------------------------------------|
Suggest correction
Give kudos to tab author, rate the tab!
1 2 3 4 5
comments
print report bad tab
guest
You may want to rate the tab now too:
select rating
Wanna post a correction for this tab? Suggest correction